Zwan - Lyric Chords & Tabs

 

Lyric Chords & Tabs

Zwan Chords & Tabs

Version: 1 Type: Tab 0 ratings
1 star 2 stars 3 stars 4 stars 5 stars
comments

Lyric Tab

Artist: Zwan
Song: Lyric (intro)
Tabbed By: Unclebobby

[ Tab from: http://www.guitartabs.cc/tabs/z/zwan/lyric_tab.html ]
e|---------0------------------------------------------------------------------|
B|-----3-----3---------3-------3----------------------------------------------|
G|---2---2-----2-----0---0---0---0--------------------------------------------|
D|-0-------------0-2-------4--------------------------------------------------|
A|----------------------------------------------------------------------------|
E|----------------------------------------------------------------------------|

e|---------5---------------5--------------------------------------------------|
B|-----5-----5---5-----5-------0-3--------------------------------------------|
G|---7---7-----7-----7---7---2------------------------------------------------|
D|-5---------------5----------------------------------------------------------|
A|----------------------------------------------------------------------------|
E|----------------------------------------------------------------------------|



enjoy :)))))))))))
Comments