Zutons - You Will You Won't Chords & Tabs

 

You Will You Won't Chords & Tabs

Zutons Chords & Tabs

Version: 1 Type: Tab 1 rating
1 star 2 stars 3 stars 4 stars 5 stars
comments

You Will You Won't Tab

#----------------------------------PLEASE NOTE---------------------------------#
#This file is the author's own work and represents their interpretation of the #
#song. You may only use this file for private study, scholarship, or research. #
#------------------------------------------------------------------------------#

ZUTONS: YOU WILL, YOU WON'T

easyish.. good song.. think ive got it about right


beginning:

e| ---------------------------------------------------
B| ---------------------------------------------------
G| slide up to 4-4-4-4-4-4-4-4-4-4---4-4-2-2-0-0------
D| ----------------------------------------------2--2-
A| ---------------------------------------------------
E| ---------------------------------------------------

______________________________________________________________________________

CHORUS:

---------------------------------------------------------
---------------------------------------------------------
---------------------------------------------------------
---0-2-0-2---0-2-0-2---0-2-2-0-2-2--0-2-0-2--------------
--------------------------------------------------------- 
---------------------------------------------------------


VERSE:
---------------------------------------------------------
-0-0-0-0-0-0-----------------0-0-0-0----------0-----------
-------------0-----------0----------0----------2-0-------
---------------2-2-2-2-2-------------2-2-2--------2-----
---------------------------------------------------------
--------------------------------------------------------

verse 1: 
   
(while youre thinking thinking thinking up a storm in you ect)
      

       CHORUS

verse 2:
             
(well the devil's standing tall on top of the hill ect)
  

      CHORUS

[ Tab from: http://www.guitartabs.cc/tabs/z/zutons/you_will_you_wont_tab.html ]
---------------------------------------------------------
---------------------------------------------------------
--0-0-------0-0------------------------------------------
------4-2-------4-2----4-4-2-1---4-4-2-1-----------------
---------------------------------------------------------
---------------------------------------------------------

---------------------------------------------------------------
---------------------------------------------------------------
--------0-0-------0-0------------------------------------------
--4-4-4-----4-2-------4-2----4-4-4-4----9-9-9-9-9-9-9-----
---------------------------------------------------------
---------------------------------------------------------

end bit: 
                         
(well I've tried so hard)
     


---------------------------------------------------------
--0-0---------0-0---------0-0-0-3-0-0--0-0---------------
-----2--0--------2--0---------------------2--0-----------
----------2-----------2------------------------2---------
---------------------------------------------------------
---------------------------------------------------------


CHORUS SUNG DIFFERENTLY:
    
(you will you won't)

         SECOND HALF OF CHORUS= NORMAL NOTES
_____________________________________________________________________________________
guitar solo

---------------------------------------------------------
---------------------------------------------------------
0000000000000000-00000000--------------------------------
-------------------------2-0-----------------------------
----------------------------3-0--------------------------
---------------------------------------------------------

______________________________________________________________________________________

ebb_or_flow@hotmail.com
Comments