Zutons - Why Wont You Give Me Your Love Chords & Tabs

 

Why Wont You Give Me Your Love Chords & Tabs

Zutons Chords & Tabs

Version: 2 Type: Tab

Why Wont You Give Me Your Love Tab

Here's Dave's solo in the great 'Why Won't You Give Me Your Love?'.


e--------------------------------------------------------------|
B--------------------------------------------------------------|
G-----------15--17b--17b--17b-17p15----------------------------|
D----15h17--------------------------17-------------------------|
A--------------------------------------------------------------|
E--------------------------------------------------------------|
[ Tab from: http://www.guitartabs.cc/tabs/z/zutons/why_wont_you_give_me_your_love_tab_ver_2.html ]
e--------------------------------------------------------------|
B----18p15--18p15--18p15--18--18b--18--------------------------|
G--------------------------------------------------------------|
D--------------------------------------------------------------|
A--------------------------------------------------------------|
E--------------------------------------------------------------|

e--------------------------------------------------------------|
B---------15h18-18-18p15---------------------------------------|
G--15h17-----------------15------------------------------------|
D--------------------------------------------------------------|
A--------------------------------------------------------------|
E--------------------------------------------------------------|

e-----------------------------------------------------------------|
B-----------------------------------------------------------------|
G------17p15------17p15------17p15--------------------------------|
D--15---------17---------17---------17---15-----------------------|
A-----------------------------------------------------------------|
E-----------------------------------------------------------------|