Zutons - Valerie Chords & Tabs

 

Valerie Chords & Tabs

Zutons Chords & Tabs

Version: 1 Type: Tab 1 rating
1 star 2 stars 3 stars 4 stars 5 stars
comments

Valerie Tab

   
Intro:

E:--6-----6-----|   
B:----8-----8---|
G:------8-----8-|
D:--------------|
A:--------------|
E:--------------|

Verse 1:
         Eb

                        Fm

         Eb

                        Fm


Chorus:
     G#5

         Gm

     G#5

         Gm

     G#5

Gm                        Bb

                              Eb

Fm

Verse 2:
         Eb

                        Fm

         Eb

                        Fm

         Eb

                        Fm

         Eb

                        Fm



[ Tab from: http://www.guitartabs.cc/tabs/z/zutons/valerie_tab.html ]

riff:
E:--------------------------------------------------|   
B:--------------------------------------------------|
G:--------------------------------------------------|x2 then
D:--------------------------------------------------|
A:---------------------------10--13--15--13--15-----|
E:-11--11--11--11--11----11-------------------------| 



E:--------------------------------------------------|   
B:--------------------------------------------------|
G:--------------------------------------------------|x2
D:--------------------------------------------------|
A:---------------------------11--13--15--13--15-----|
E:-13--13--13--13--13----13-------------------------|





tabbed by George Coyne, comments ect to georgecoyne@hotmail.co.uk
Comments