Zutons - Confusion Chords & Tabs

 

Confusion Chords & Tabs

Zutons Chords & Tabs

Version: 3 Type: Tab 0 ratings
1 star 2 stars 3 stars 4 stars 5 stars
comments

Confusion Tab

   
THE ZUTONS - CONFUSION
----------------------


This is written for acoustic guitar and therfore does not include any of the sax riffs


A (x02220)
A7 (x02223)
D (xx0232)
E (022100)
A* (x0222x)



INTRO:    e|---------------------------------|
          B|---------------------------------|
          G|---------------------------------|
          D|---------------------------------|
          A|---7--7---7--7----7--7---7--7----|
          E|-5------5-------5------5---------|



            (A)                               (A7)
V1:       e|-----0-------0-------0-------2---|-----3-------3-------3-------3---|
          B|-------2---2---2-------2---2---2-|-------2---2---2-------2---2---2-|
          G|---2-----2---------2-----2-------|---2-----2---------2-----2-------|
          D|---------------------------------|---------------------------------|
          A|-0---------------0---------------|-0---------------0---------------|
          E|---------------------------------|---------------------------------|

            It's funny how it tears me apart, first it breaks your head then your heart.


            (D)                               (A)
          e|-----2-------2-------2-------2---|-----0-------0-------0-------0---|
          B|-------3---3---3-------3---3---3-|-------2---2---2-------2---2---2-|
          G|---2-----2---------2-----2-------|---2-----2---------2-----2-------|
          D|-0---------------0---------------|---------------------------------|
          A|---------------------------------|-0---------------0---------------|
          E|---------------------------------|---------------------------------|

            I should've loved you better, from the start.


            (A)                               (A7)
          e|-----0-------0-------0-------2---|-----3-------3-------3-------3---|
          B|-------2---2---2-------2---2---2-|-------2---2---2-------2---2---2-|
          G|---2-----2---------2-----2-------|---2-----2---------2-----2-------|
          D|---------------------------------|---------------------------------|
          A|-0---------------0---------------|-0---------------0---------------|
          E|---------------------------------|---------------------------------|

            It's chewin' at my bones and my brains, it's workin' through the flesh that remains.


            (D)                               (A)
          e|-----2-------2-------2-------2---|-----0-------0-------0-------0---|
          B|-------3---3---3-------3---3---3-|-------2---2---2-------2---2---2-|
          G|---2-----2---------2-----2-------|---2-----2---------2-----2-------|
          D|-0---------------0---------------|---------------------------------|
          A|---------------------------------|-0---------------0---------------|
          E|---------------------------------|---------------------------------|

            Why can't this feeling leave me and just fade away?



          E               D              A*
C1:       From day one i led you on, i'm sorry girl, but i can't stay.
          E                             D                A*
          Things have changed, they're not the same, now i must walk the other way.



            (A)                               (A)
LINK 1:   e|-----0-------0-------0-------2---|-----0-------0-------0-------0---|
          B|-------2---2---2-------2---2---2-|-------2---2---2-------2---2---2-|
          G|---2-----2---------2-----2-------|---2-----2---------2-----2-------|
          D|---------------------------------|---------------------------------|
          A|-0---------------0---------------|-0---------------0---------------|
          E|---------------------------------|---------------------------------|



            (A)                               (A7)
V2:       e|-----0-------0-------0-------2---|-----3-------3-------3-------3---|
          B|-------2---2---2-------2---2---2-|-------2---2---2-------2---2---2-|
          G|---2-----2---------2-----2-------|---2-----2---------2-----2-------|
          D|---------------------------------|---------------------------------|
          A|-0---------------0---------------|-0---------------0---------------|
          E|---------------------------------|---------------------------------|

            Confusion raining down from up high and all the time you ask yourself 'why?'

[ Tab from: http://www.guitartabs.cc/tabs/z/zutons/confusion_tab_ver_3.html ]
            (D)                               (A)
          e|-----2-------2-------2-------2---|-----0-------0-------0-------0---|
          B|-------3---3---3-------3---3---3-|-------2---2---2-------2---2---2-|
          G|---2-----2---------2-----2-------|---2-----2---------2-----2-------|
          D|-0---------------0---------------|---------------------------------|
          A|---------------------------------|-0---------------0---------------|
          E|---------------------------------|---------------------------------|

            Why can't you make decisions? Can't make up your mind.


            (A)                               (A7)
          e|-----0-------0-------0-------2---|-----3-------3-------3-------3---|
          B|-------2---2---2-------2---2---2-|-------2---2---2-------2---2---2-|
          G|---2-----2---------2-----2-------|---2-----2---------2-----2-------|
          D|---------------------------------|---------------------------------|
          A|-0---------------0---------------|-0---------------0---------------|
          E|---------------------------------|---------------------------------|

            Although you're trying hard to forget the reason why you feel so misled.


            (D)                               (A)
          e|-----2-------2-------2-------2---|-----0-------0-------0-------0---|
          B|-------3---3---3-------3---3---3-|-------2---2---2-------2---2---2-|
          G|---2-----2---------2-----2-------|---2-----2---------2-----2-------|
          D|-0---------------0---------------|---------------------------------|
          A|---------------------------------|-0---------------0---------------|
          E|---------------------------------|---------------------------------|

            NOw come on and forgive me, i'll help you accept.



          E               D              A*
C2:       From day one i led you on, i'm sorry girl, but i can't stay
          E                             D                A*
          Things have changed, they're not the same, now i must walk the other way



            (A)                               (A7)
SOLO:     e|-----0-------0-------0-------2---|-----3-------3-------3-------3---|
          B|-------2---2---2-------2---2---2-|-------2---2---2-------2---2---2-|
          G|---2-----2---------2-----2-------|---2-----2---------2-----2-------|
          D|---------------------------------|---------------------------------|
          A|-0---------------0---------------|-0---------------0---------------|
          E|---------------------------------|---------------------------------|


            (D)                               (A)
          e|-----2-------2-------2-------2---|-----0-------0-------0-------0---|
          B|-------3---3---3-------3---3---3-|-------2---2---2-------2---2---2-|
          G|---2-----2---------2-----2-------|---2-----2---------2-----2-------|
          D|-0---------------0---------------|---------------------------------|
          A|---------------------------------|-0---------------0---------------|
          E|---------------------------------|---------------------------------|


            (A)                               (A)
          e|---------------------------------|---------------------------------|
          B|---------------------------------|---------------------------------|
          G|-6h4--2--2--6h4--2--2--6h4--2--2-|-6h4--2---2--4-------------------|
          D|---------------------------------|--------4------------------------|
          A|---------------------------------|---------------------------------|
          E|---------------------------------|---------------------------------|


           (D)              
          e|-17--17--17--15--15--15--14--14--14--12--12--10--12--10--12--------|
          B|-------------------------------------------------------------------|
          G|-------------------------------------------------------------------|
          D|-------------------------------------------------------------------|
          A|-------------------------------------------------------------------|
          E|-------------------------------------------------------------------|



          E               D              A*
C3:       From day one i led you on, i'm sorry girl, but i can't stay
          E                             D                A*
          Things have changed, they're not the same, now i must walk the other way



            (A)                               (A)                              (A7)
OUTRO:    e|-----0-------0-------0-------2---|-----0-------0-------0-------0---|-3-|
          B|-------2---2---2-------2---2---2-|-------2---2---2-------2---2---2-|-2-|
          G|---2-----2---------2-----2-------|---2-----2---------2-----2-------|-2-|
          D|---------------------------------|---------------------------------|-2-|
          A|-0---------------0---------------|-0---------------0---------------|-x-|
          E|---------------------------------|---------------------------------|-x-|



-rigs-
Comments