Zox - Eventually Chords & Tabs

 

Eventually Chords & Tabs

Zox Chords & Tabs

Version: 1 Type: Tab 0 ratings
1 star 2 stars 3 stars 4 stars 5 stars
comments

Eventually Tab

   
                                                                                         
  zox - eventually

played in the key of E,  you can get the picking patterns easily by listening to the song
[ Tab from: http://www.guitartabs.cc/tabs/z/zox/eventually_tab.html ]
intro:
---------------------------------------|
----------------------------12---------|
-----------9---11/13-------------------|
-----------------------------------14--|
----9/11-------------------------------|
-0-------------------------------------|

basic chords:

 B        A    A        B         E    E
-7------5---5------7-------7---7--|
-7------5---5------7-------9---9--|
-8------6---6------8-------9---9--|
-9------7---7------9-------9---9--|
-9------7---7------9-------7---7--|
-7------5---5------7--------------|

comments- borger86@yahoo.com
Comments