Zornik - Whats Wrong Chords & Tabs

 

Whats Wrong Chords & Tabs

Zornik Chords & Tabs

Version: 1 Type: Tab 0 ratings
1 star 2 stars 3 stars 4 stars 5 stars
comments

Whats Wrong Tab

   
this is a easy version of what's wrong, the real one is strange and very hard to play. 

normal tuning: e B G D A e

E||--------1-----|--------1-----|-----1--------|--------0-----|-----0--------|
B||-----------1--|-----------1--|--------1-----|-----------1--|--------1-----|
G||-----2--------|-----2--------|--2--------2--|-----0--------|--0--------0--|
D||--3-----------|--3-----------|--------------|--2-----------|--------------|
A||--------------|--------------|--------------|--------------|--------------|
E||--------------|--------------|--------------|--------------|--------------|


                       Dm                                                  
--0--------0--|--------------|--1--------0--|--------0-----|-----------1--|
-----1--------|--1-----------|-----3--------|--3--------3--|--------------|
--------0-----|-----0-----2--|--------2-----|-----2--------|--2-----2-----|
--------------|--------0-----|--------------|--------------|-----0--------|
--------------|--------------|--------------|--------------|--------------|
--------------|--------------|--------------|--------------|--------------|


                               
--------0-----|-----0--------||
--3--------3--|--------3-----||
-----2--------|--2--------2--||
--------------|--------------||
--------------|--------------||
--------------|--------------||
repeat this a few times
and then it is:
[ Tab from: http://www.guitartabs.cc/tabs/z/zornik/whats_wrong_tab.html ]
     F#        Am7          Dm                           
E||--2----2----0----0----|--1----1----1----1----|------||
B||--2----2----1----1----|--3----3----3----3----|------||
G||--3----3----0----0----|--2----2----2----2----|------||
D||--4----4----2----2----|--0----0----0----0----|------||
A||--4----4----0----0----|----------------------|------||
E||--2----2--------------|----------------------|------||
repeat a few times

E||--------1-----|--------1-----|-----1--------|--------0-----|-----0--------|
B||-----------1--|-----------1--|--------1-----|-----------1--|--------1-----|
G||-----2--------|-----2--------|--2--------2--|-----0--------|--0--------0--|
D||--3-----------|--3-----------|--------------|--2-----------|--------------|
A||--------------|--------------|--------------|--------------|--------------|
E||--------------|--------------|--------------|--------------|--------------|


                       Dm                                                  
--0--------0--|--------------|--1--------0--|--------0-----|-----------1--|
-----1--------|--1-----------|-----3--------|--3--------3--|--------------|
--------0-----|-----0-----2--|--------2-----|-----2--------|--2-----2-----|
--------------|--------0-----|--------------|--------------|-----0--------|
--------------|--------------|--------------|--------------|--------------|
--------------|--------------|--------------|--------------|--------------|


                               
--------0-----|-----0--------||
--3--------3--|--------3-----||
-----2--------|--2--------2--||
--------------|--------------||
--------------|--------------||
--------------|--------------||
play this one time

     F#        Am7          Dm                           
E||--2----2----0----0----|--1----1----1----1----|------||
B||--2----2----1----1----|--3----3----3----3----|------||
G||--3----3----0----0----|--2----2----2----2----|------||
D||--4----4----2----2----|--0----0----0----0----|------||
A||--4----4----0----0----|----------------------|------||
E||--2----2--------------|----------------------|------||
play this until the end
Comments