Zornik - Love Affair Chords & Tabs

 

Love Affair Chords & Tabs

Zornik Chords & Tabs

Version: 1 Type: Tab 1 rating
1 star 2 stars 3 stars 4 stars 5 stars
comments

Love Affair Tab

Zornik - Love Affair


Tabbed by Renzy


Intro :

e-0-...--0-...--------------------------------------------|
B-2-...--3-...--------------------------------------------|
G-2-...--0-...--------------------------------------------|
D-2-...--4-...--------------------------------------------|
A-0-...--0-...--------------------------------------------|
E---------------------------------------------------------|

Verse:

e-0-...--0-...--5--0--5--0--------------------------------|
B-2-...--3-...--3--3--3--3--------------------------------|
G-2-...--0-...--0--0--0--0--------------------------------|
D-2-...--4-...--4--4--4--4--------------------------------|
A-0-...--0-...--0--0--0--0--------------------------------|
E---------------------------------------------------------|

Bridge: (probably wrong)

e-------------------------------------------------------------------|
B-------------------------------------------------------------------|
G-7-...--7-...--7-...--7-...--7-...--7-...--7-...-------------------|
D-X----7-...--X-...--7-...--X-...--7-...--X-...---------------------|
A-------------------------------------------------------------------|
E-------------------------------------------------------------------|

Prechorus Riff:
[ Tab from: http://www.guitartabs.cc/tabs/z/zornik/love_affair_tab.html ]
e----------------------------------------------------|
B----------------------------------------------------|
G----------------------------------------------------|
D----------------------------------------------------|
A----------------------------------------------------|
E-0-12b-12b-X-X-X--10-10-10-10-12-12-----------------|

Chorus

  "Take my hand, cause I don't know if I am dead
e-0-...-------0-...--------5-...-----(4)-...-----2-...--0-...----|
B-0-...-------0-...--------5-...-----(4)-...-----3-...--0-...----|
G-7-...-------7-...--------6-...-----(6)-...-----2-...--1-...----|
D-7-...-------6-...--------7-...-----(7)-...-----0-...--2-...----|
A-0-...-------7-...--------7-...-----(7)-...-----0-...--2-...----|
E-7-...-------X-...--------5-...-----(4)-...-----2-...--0-...----|

Interlude:
e-------------------------------------------------------|
B-------------------------------------------------------|
G-7-7-7-/12-12-12-11-11-------------12--12--12--11--11--|
D-7-7-7-----------------11b-11b-11b-11b-11b-11b-11b-11b-|
A-0-0-0-------------------------------------------------|
E-7-7-7-------------------------------------------------|

e-2-2-2-3-3-3-2-2-|--2-2-2-2-2---------|-------------|part between | |
B-3-3-3-2-2-2-2-2-|--2-2-2-2-2-3-3-2-0-|-------------|only the 1st time
G-4-4-4-4-4-4-4-4-|--3-3-3-3-3---------|-------------|
D-4-4-4-4-4-4-4-4-|--4-4-4-4-4---------|-------------|
A-2-2-2-2-2-2-2-2-|--4-4-4-4-4---------|-------------|
E-----------------|--2-2-2-2-2---------|-------------|

Outro:
e---------------------0------------------------------|
B---------------------0------------------------------|
G-7-7-7-/12-12-12-11--9------------------------------|
D-7-7-7--------------10------------------------------|
A-0-0-0--------------11------------------------------|
E-7-7-7----------------------------------------------|
Comments