Zombies - Care Of Cell 44 Chords & Tabs

 

Care Of Cell 44 Chords & Tabs

Zombies Chords & Tabs

Version: 1 Type: Tab 0 ratings
1 star 2 stars 3 stars 4 stars 5 stars
comments

Care Of Cell 44 Tab

   
Care of Cell 44 (Rod Argent)
From the Zombies' 1968 album 'Odessey and Oracle.'


(Main)
E---------------------------------------------------------
B---------------------------------------------------------
G-----2------------2--------------------------------------
D---2---2-4--2-4-5----------------------------------------
A-0-------------------------------------------------------
E---------------------------------------------------------

[ Tab from: http://www.guitartabs.cc/tabs/z/zombies/care_of_cell_44_tab.html ]
G               Bm     Em          G       C       G  Am  C
Good morning to you, I hope you're feeling better, baby
G           Bm       Bb          (Main)
Thinking of me while you are far away
G                Bm     Em       G       C     G   Am  C
And counting the days until they set you free again
G            Bm      Bb             (Main)
Writing this letter, hoping you're OK    (etc.)
C     G  A                   D   C  C/B  C/A
Feels so good, you're coming home soon

E-6-6-6-6-6-6-6-6-6-6-6-6-6-6-6---------------------------
B-3-3-3-3-3-3-3-3-3-3-3-3-3-3-3---------------------------
G---------------------------------------------------------
D---------------------------------------------------------
A---------------------------------------------------------
E---------------------------------------------------------
 We'll walk in the way we used to walk
 And it could be so nice
 We'll talk in the way we used to talk
 And it could be so nice

E---------------------------------------------------------
B---------------------------------------------------------
G-4---5---4---5-4---4---5---4---5-4-----------------------
D---5---5---5-----5---3---3---3-----3---------------------
A---------------------------------------------------------
E---------------------------------------------------------


(Questions, comments, email at kakaroto@cybermesa.com)
Comments