Zombie Rob - Never Gonna Stop Chords & Tabs

 

Never Gonna Stop Chords & Tabs

Zombie Rob Chords & Tabs

Version: 3 Type: Tab 0 ratings
1 star 2 stars 3 stars 4 stars 5 stars
comments

Never Gonna Stop Tab

“Never Gonna Stop” by Rob Zombie
off of the album Sinister Urge

Tabbed by Krakpot (ehusney@hotmail.com)
http://www.dracon32.com/evan

Intro/Main Riff
1------------------------------------
2-----------3------------------------
3-----5-----------3-----3-----3-5----
4------------------------------------
5—3-3---3-3---3-3---3-3---3-3--------
6------------------------------------
[ Tab from: http://www.guitartabs.cc/tabs/z/zombie_rob/never_gonna_stop_tab_ver_3.html ]
Little Fill In Verse
1-----------------
2-----------------
3-----------------
4--3-3------------
5--3-3--------3---
6--1-1--3-6-3---6-

Chorus
1---------------------|------
2---------------------|--4---
3---------------------|--6^--
4--5--5--5--5---8--8--|------
5--5--5--5--5---8--8--|------
6--3--3--3--3---6--6--|------
   Never gonna… me     Fill

Bridge Riff
1------------------|----------------
2-4--4--6--4-------|-6--6--4--13----
3—6^-6^-8^-6^------|-8^-8^-6^-11^---
4------------------|----------------
5------------------|----------------
6------------------|----------------
 Scream if… repeat  forth time

That’s pretty much it. Have fun!
Comments