Zombie Rob - Dragula Chords & Tabs

 

Dragula Chords & Tabs

Zombie Rob Chords & Tabs

Version: 1 Type: Tab 2 ratings
1 star 2 stars 3 stars 4 stars 5 stars
comments

Dragula Tab

   
Dragula- Rob Zombie  Tabbed by Bill G. (billg3@hotmail.com)

*THANKS RIGGS!*

Tune from low to high strings: C, G, C, F, A, D. 

BPM=125

Intro-
 Repeat 1x
D|----------------------------------------------------------------------
A|----------------------------------------------------------------------
F|--19-19-19--20-20--19-19-19-19-19--19-19-19-19--20-20--19-19-19-19-19-
C|----------------------------------------------------------------------
G|--17-17-17--17-17--17-17-17-17-17--17-17-17-17--17-17--17-17-17-17-17-
C|----------------------------------------------------------------------
[ Tab from: http://www.guitartabs.cc/tabs/z/zombie_rob/dragula_tab.html ]
This is played in-between the verse:
 
D|----------------------------------------------------------------------
A|----------------------------------------------------------------------
F|--19-19-19--20-20--19-19-19-19-19--19-19-19-19--20-20--19-19-19-19-19-
C|----------------------------------------------------------------------
G|--17-17-17--17-17--17-17-17-17-17--17-17-17-17--17-17--17-17-17-17-17-
C|--0--0--0---0--0---0--0--0--0--0---0--0--0--0---0--0---0--0--0--0--0--

Chorus:
 Repeat 1x
D|-----------------------------
A|-----------------------------
F|--0-~--------------------4~--
C|--0-~--------0-~-------------
G|--0-~--------0-~-------------
C|-------------0-~-------------

Bridge:
"do it baby.."

D|----------------
A|----------------
F|--5-5-5-5-6-6-6-
C|--5-5-5-5-5-5-5-
G|--3-3-3-3-3-3-3-
C|----------------
P.M.--------------

"second verse are open muted scratches"

(This tab was made from Riggs' own words. Don't try to tell me it's wrong.)
Comments