Ziggy Marley - One Good Spliff Chords & Tabs

 

Ziggy Marley Chords & Tabs

Version: 1 Type: Tab 0 ratings
1 star 2 stars 3 stars 4 stars 5 stars
comments

One Good Spliff Tab

-------------------------------------------------------------------------------
			     One Good Spliff - Ziggy Marley
-------------------------------------------------------------------------------

Tabbed by:Brian
Email:duckswalkalot@aol.com
[ Tab from: http://www.guitartabs.cc/tabs/z/ziggy_marley/one_good_spliff_tab.html ]
e|------------------------------------------------------------------------------|
B|--7-----------0------------------7-------12-10-8-7----------------------------|
G|--7---7-------4---6--------------7---7---12-11-9-7----------------------------|
D|--0---7-------5---7--------------0---7-----------0---(0)(2)(4)----------------|
A|------------------0--(0)(0)(0)------------------------------------------------|
E|------------------------------------------------------------------------------|
i think thats played a couple times and then only the first half is played
afterwards, a cool little part
Comments