Zero 7 - I Have Seen Chords & Tabs

 

I Have Seen Chords & Tabs

Zero 7 Chords & Tabs

Version: 1 Type: Tab 0 ratings
1 star 2 stars 3 stars 4 stars 5 stars
comments

I Have Seen Tab

I'm going to tab out how to play this on bass and guitar.
In the song, it's bass.

Anyway, guitar first.

E--------------------------------------------------
B--------------------------------------------------
G--------------------------------------------------
D--------------------------------------------------
A--------------------------------------------------
E--12-12-10-12----12-12-10-12----------------------
[ Tab from: http://www.guitartabs.cc/tabs/z/zero_7/i_have_seen_tab.html ]
E--------------------|-----------------------------
B--------------------|-----------------------------
G--------------------|-----------------------------
D--------------------|-----------------------------
A------5h7-7-5h7/9-5-|-0---------------------------
E0--7----------------|---0--3h5-3------------------

Anyway, this is how to play it on bass


G--9-9-7-9-----9-9-7-9-----------------------------
D--------------------------------------------------
A--------------------------------------------------
E--------------------------------------------------

G----------7h9-9-7h9/11/7--------------------------
D-(or)2----------------------2---------------------
A------------------------------2--5h7-5------------
E----12--------------------------------------------
Comments