Zero 7 - Destiny Chords & Tabs

 

Destiny Chords & Tabs

Zero 7 Chords & Tabs

Version: 1 Type: Tab 0 ratings
1 star 2 stars 3 stars 4 stars 5 stars
comments

Destiny Tab

   
http://www.zero7.co.uk/ British electronica/alternative band

Tabbed by LKW on june 1st, 2004

Best played with fingers, since it's all arpeggio's.
It's pretty easy, except there are a few parts which
require some dexterity to still make it sound smooth,
mainly around the 3/5 slides. Still not too hard.

I'm not gonna tab out the exact picking pattern for
each measure, it differs a bit throughout the song but
it's based on these chords;

C5add9(?)   D#maj7    G#    Gmin
  3           x       4      3
  3           3       4      3
  5           3       5      3
  5           5       6      5
  3           6       6      5
  x           x       4      3

You can just basically improvise on that.

   C5add9
e|-------------------3----------|
B|------------4-----------------|
G|------5---------5-------3-----|
D|---5----5-----------3/5---5---|
A|-3~~~~~~~~~~~~~~~~------------|
E|------------------------------|

   D#maj7
e|------------------------------|
B|---------------3-----3-----3--|
G|---------------3-----3-----3--|
D|------------5-----5-----5-----|
A|-6~~~~~~~~~~~~~~~~~~~~~~~-----|
E|------------------------------|
[ Tab from: http://www.guitartabs.cc/tabs/z/zero_7/destiny_tab.html ]
   G#           Gmin
e|------------------------------|
B|----------------3-------------|
G|--------5-------3-------3-----|
D|----6-----5---------3/5---5---|
A|------6-----------------------|
E|-4~~~~~~~~~~~~3~~~~~~---------|


So play these picking patterns on the verses:


C5add9           D#maj7
I lie awake I've gone to ground

             C5add9           D#maj7
I'm watching porn In my hotel dressing gown

      C5add9             D#maj7
Now I dream of you But I still believe

             G#                     Gmin       D#maj7
There's only enough for one in this Lonely hotel suite



The chorus:
e|------------------------------|------------------------------|
B|-6------6------6------6-------|-6-------6--------5------5----|
G|---5------5------5------5-----|---5-------5--------5------5--|
D|------------------------------|------------------------------|
A|-6----6-----5------5--------4-|------4-------3-------3------3|
E|------------------------------|------------------------------|
repeat that three times
when it goes "even though we're.." the chorus ends with this:
e|------------------------------|------------------------------|
B|-6------6------6------6-------|-6-------6------6~~~~~~~~~~---|
G|---5------5------5------5-----|---5-------5----5~~~~~~~~~~---|
D|------------------------------|------------------------------|
A|-6----6-----5------5--------4-|------4---------4~~~~~~~~~~---|
E|------------------------------|------------------------------|
Comments