Zellar Martin - Lullaby Chords & Tabs

 

Lullaby Chords & Tabs

Zellar Martin Chords & Tabs

Version: 1 Type: Tab 0 ratings
1 star 2 stars 3 stars 4 stars 5 stars
comments

Lullaby Tab

   
#-----------------------------PLEASE NOTE-------------------------------------#
#This OLGA file is the author's own work and represents their interpretation  #
#of the song. You may only use this file for private study, scholarship, or   #
#research. Remember to view this file in Courier, or other monospaced font.   #
#See http://www.olga.net/faq/ for more information.                           #
#-----------------------------------------------------------------------------#

Subject: z/zellar_martin/lullaby.tab

Title:  Lullaby
Artist:  Martin Zellar 
Album:  Martin Zellar & the Hardways
1996 Rykodisc

Transcriber: Brian Junck  
		   junckmb@uwec.edu
		   7/11/97

Comments:  Any suggestions or questions should be sent to the 
e-mail address above.  This is the first tab that I've ever put 
on the computer so sue me if it doesn't come out right.


Here are the chords that are used:
	G7:  320001
	G5:  320030
	G3:  320033
        G**: 320xxx 
        C:   032010
	F:   003211
	F**: 133211
	Em:  022000
	
The Song begins with a pretty easy picking pattern.

Intro:

  C               C               C
e-----------------------------------------------------------
B---------1---------------1---------------1-----------------            
G-----0-----0---0-----0-----0---0-----0-----0---0-----------            
D---2---2-----2-----2---2-----2-----2---2-----2-------------            
A-3---------------3---------------3-------------------------           
E-----------------------------------------------------------


  				Close Your eyes baby, turn out the 
  C               C               C
e-----------------------------------------------------------            
B---------1---------------1---------------1-----------------           
G-----0-----0---0-----0-----0---0-----0-----0---0-----------                 
D---2---2-----2-----2---2-----2-----2---2-----2-------------           
A-3---------------3---------------3-------------------------            
E-----------------------------------------------------------

  lights,  Didn't find the sleep for now, let's 
  G3              G3              G3   
e-----------------------------------------------------------           
B---------3---------------3---------------3-----------------           
G-----0-----0---0-----0-----0---0-----0-----0---0-----------            
D---0---0-----0-----0---0-----0-----0---0-----0-------------           
A-2---------------2---------------2-------------------------            
E-----------------------------------------------------------

         go here tonight(------------------------->
  G3              C               G5
e-----------------------------------------0-----------------             
B---------3---------------1---------------3-----------------           
G-----0-----0---0-----0-----0---0-----0---0-0---0-----------             
D---0---0-----0-----2---2-----2---------0-0---0-------------            
A-2---------------3-----------------2-----x-----------------            
E---------------------------------3-------x-----------------
[ Tab from: http://www.guitartabs.cc/tabs/z/zellar_martin/lullaby_tab.html ]
  And in the morning when you
	wake up I'll hold you, kiss your cheek
  C               C               F
e-------------------------------------1-1---------1-1-------             
B---------1---------------1-----------1-1---1-----1-1---1---              
G-----0-----0---0-----0-----0---0---2-2-0-0-----2-2-0-0-----             
D---2---2-----2-----2---2-----2---3---3-3-----3---3-3-------            
A-3---------------3-----------------------------------------            
E-----------------------------------------------------------

(Here's how the very last bit of the intro goes- it was too much 
work to try and get the verse and the pattern to correlate, so I 
tabbed the pattern and then put down where the chord changes take
 place on the verse.)
   
   C       Em      F**     G5      C       G7
e------0-------0-------1-------0-------0---------1-1--------
B------1-------0-------1-------3-------1---------0-0--------
G------0-0-----0-------2-------0-------0-0-----0-0-0--------
D----2-2-------2-2-----3-3-----0-0---2-2---------0-0--------
A--3---------2-------3-------2-----3---------2-----2--------
E----------0-------1-------3---------------3-------3--------

C                          Em              F        
And as you slowly wipe the sleep from your eyes and                      

    G5               C   G7
you smile I'll believe


(Start strumming)
C					G5	
I was alone and a drifter, yes it's true
						C	 G* G7
Until the breathtaking moment I first laid eyes on you
C						   
And I finally felt forgiven 
 			F(Riff 2-bottom page)	
and I finally felt the worth
C			    Em                   F                          	
That I never felt was due to me in all the years
             G5                  C     G7   
	that I stumbled upon this earth


(CHORUS)
C   Em             G5
And I............  yeah I...............
							     C  G7
I love ya twice around the world under the stars up in the sky
C    Em           G5
And I.........  yeah I...............
						C
I'll give ya all my everything 'till the day I die


(VERSE)
C						   G5
You know lovin's not always easy, hard times lay ahead
					     C  G7  
Mistakes will be made, hard words will be said
C   							     
But ya know that I love you, 
				F(Riff 2)
and I'll love you as long as I live
C                 Em              F                  G5                                         
And there ain't nothing in this world that you could do 			
                    C     G7
that I couldn't forgive


(Chorus)
C   Em            G5
And I...............  yeah I............
							    C   G7
I love ya twice around the world under the stars up in the sky
C   Em             G5
And I...............   yeah I..................
         				    C(End Riff)
I'll give you all my everything, until the day I die

	(End Riff)
(e-------------------)
(B---------1-------1-)
(G-----0-----0---0---)
(D---2---2-----2-----)
(A-3-----------------)
(E-------------------)

("F" Riff 2- use at ...... Felt the worth...)

   V V ^   V ^ V ^ V ^ V   ^ V ^
(e-1-1-1---1-1-1-1-1-1-1---1-1-1------------)
(B-1-1-1---1-1-1-1-1-1-1---1-1-1------------)
(G-2-2-0---0-0-0-2-2-2-0---0-0-0------------)
(D-3-3-3---3-3-3-3-3-3-3---3-3-3------------)
(A------------------------------------------)
(E------------------------------------------)


There it is.  Like I said before, any questions just e-mail 
me at the address above.  
Comments