Zeke - Dilaudid Chords & Tabs

 

Dilaudid Chords & Tabs

Zeke Chords & Tabs

Version: 1 Type: Chords 0 ratings
1 star 2 stars 3 stars 4 stars 5 stars
comments

Dilaudid Chords

dilaudid


zeke


TRANSCRIBED BY RUDY GUZMAN


guzman_84@hotmail.com


eb:-------------------------------------------------|
Bb:-------------------------------------------------|
Gb:-------------------------------------------------|
Db:-------------------------------------------------|
Ab:-7--7-7-7-7-7-7-7-7-7-7-7-7-7-7-7-7-7-7-7-7--7-7-|
Eb:-0--0-0-0-0-0-0-0-0-0-0-0-0-0-0-0-0-0-0-0-0--0-0-|

   dilaudid you cuz either where to bait dilaudid you cuz its driving me insane
eb:---------------------------------------------------------------------|
Bb:---------------------------------------------------------------------|
Gb:---------------------------------------------------------------------|
Db:-9-9----------------------9-9-9--9-9-9-9-9---------------------9-9-9-|
Ab:-7-7---5-5-5--7-7--7-7-7--7-7-7--7-7-7-7-7--8-8-8--7-7--7-7-7--7-7-7-|
Eb:-0-0---3-3-3--5-5--5-5-5--0-0-0--0-0-0-0-0--6-6-6--5-5--5-5-5--0-0-0-|

   fist pulling head because its always on my brain see me on my way  
eb:----------------------------------------------------------------|
Bb:----------------------------------------------------------------|
Gb:----------------------------------------------------------------|
Db:-9-9----------------------9-9-9---------------------------------|
Ab:-7-7---5-5-5--7-7--7-7-7--7-7-7--10-10-10-10-10--7--7-7-7-7-7-7-|
Eb:-0-0---3-3-3--5-5--5-5-5--0-0-0--8--8--8--8--8---5--5-5-5-5-5-5-|

gt1                                 dilaudid
eb:-----------------------------------|
Bb:-14b-12-14--12-14-12--14b--12------|
Gb:-14b-12-14--12-14-12--14b--12--14--|
Db:-------------------------------14--| x 4
Ab:-----------------------------------|
Eb:-----------------------------------|
gt2
eb:--------------------------------------------|
Bb:--------------------------------------------|
Gb:--------------------------------------------|
Db:-9-9----------------------9-9-9--9-9-9-9-9--|
Ab:-7-7---5-5-5--7-7--7-7-7--7-7-7--7-7-7-7-7--|
Eb:-0-0---3-3-3--5-5--5-5-5--0-0-0--0-0-0-0-0--|

dilaudid you cuz either where to bait dilaudid you cuz its driving me insane
eb:---------------------------------------------------------------------|
Bb:---------------------------------------------------------------------|
Gb:---------------------------------------------------------------------|
Db:-9-9----------------------9-9-9--9-9-9-9-9---------------------9-9-9-|
Ab:-7-7---5-5-5--7-7--7-7-7--7-7-7--7-7-7-7-7--8-8-8--7-7--7-7-7--7-7-7-|
Eb:-0-0---3-3-3--5-5--5-5-5--0-0-0--0-0-0-0-0--6-6-6--5-5--5-5-5--0-0-0-|
    fist pulling head because its always on my brain see me on my way
eb:----------------------------------------------------------------|
Bb:----------------------------------------------------------------|
Gb:----------------------------------------------------------------|
Db:-9-9----------------------9-9-9---------------------------------|
Ab:-7-7---5-5-5--7-7--7-7-7--7-7-7--10-10-10-10-10--7--7-7-7-7-7-7-|
Eb:-0-0---3-3-3--5-5--5-5-5--0-0-0--8--8--8--8--8---5--5-5-5-5-5-5-|
[ Tab from: http://www.guitartabs.cc/tabs/z/zeke/dilaudid_crd.html ]
gt1                                     dilaudid
eb:-----------------------------------|
Bb:-14b-12-14--12-14-12--14b--12------|
Gb:-14b-12-14--12-14-12--14b--12--14--|
Db:-------------------------------14--| x 4
Ab:-----------------------------------|
Eb:-----------------------------------|
gt2
eb:--------------------------------------------|
Bb:--------------------------------------------|
Gb:--------------------------------------------|
Db:-9-9----------------------9-9-9--9-9-9-9-9--|
Ab:-7-7---5-5-5--7-7--7-7-7--7-7-7--7-7-7-7-7--|
Eb:-0-0---3-3-3--5-5--5-5-5--0-0-0--0-0-0-0-0--|

dilaudid you cuz either where to bait dilaudid you cuz its driving me insane
eb:---------------------------------------------------------------------|
Bb:---------------------------------------------------------------------|
Gb:---------------------------------------------------------------------|
Db:-9-9----------------------9-9-9--9-9-9-9-9---------------------9-9-9-|
Ab:-7-7---5-5-5--7-7--7-7-7--7-7-7--7-7-7-7-7--8-8-8--7-7--7-7-7--7-7-7-|
Eb:-0-0---3-3-3--5-5--5-5-5--0-0-0--0-0-0-0-0--6-6-6--5-5--5-5-5--0-0-0-|

   fist pulling head because its always on my brain see me on my way
eb:----------------------------------------------------------------|
Bb:----------------------------------------------------------------|
Gb:----------------------------------------------------------------|
Db:-9-9----------------------9-9-9---------------------------------|
Ab:-7-7---5-5-5--7-7--7-7-7--7-7-7--10-10-10-10-10--7--7-7-7-7-7-7-|
Eb:-0-0---3-3-3--5-5--5-5-5--0-0-0--8--8--8--8--8---5--5-5-5-5-5-5-|
                see me on my way       
eb:---------------------------------|
Bb:---------------------------------|
Gb:---------------------------------|
Db:---------------------------------|
Ab:--10-10-10-10-10--7--7-7-7-7-7-7-|
Eb:--8--8--8--8--8---5--5-5-5-5-5-5-|

gt1                                     dilaudid
eb:-----------------------------------|
Bb:-14b-12-14--12-14-12--14b--12------|
Gb:-14b-12-14--12-14-12--14b--12--14--|
Db:-------------------------------14--| x 4
Ab:-----------------------------------|
Eb:-----------------------------------|
gt2
eb:--------------------------------------------|
Bb:--------------------------------------------|
Gb:--------------------------------------------|
Db:-9-9----------------------9-9-9--9-9-9-9-9--|
Ab:-7-7---5-5-5--7-7--7-7-7--7-7-7--7-7-7-7-7--|
Eb:-0-0---3-3-3--5-5--5-5-5--0-0-0--0-0-0-0-0--|


        -----------------------------------------------------------------------------------
:------/-----------------------------------------------------------------------------------|
:-14b-/-14-14-14-14-14-14-14-14-14-14-14-14-14-14-14-14-14-14-14-14-14-14-14-14-14-14-14-14|
:-14b/--14-14-14-14-14-14-14-14-14-14-14-14-14-14-14-14-14-14-14-14-14-14-14-14-14-14-14-14|
:------------------------------------------------------------------------------------------|
:------------------------------------------------------------------------------------------|
:------------------------------------------------------------------------------------------|

       -----------------------------------------------------------------------------------
:-15b-/15-15-15-15-15-15-15-15-15-15-15-15-15-15-15-15-15-15-15-15-15-15-15-15-15-15-15-15-|
:-15b/-15-15-15-15-15-15-15-15-15-15-15-15-15-15-15-15-15-15-15-15-15-15-15-15-15-15-15-15-|
:------------------------------------------------------------------------------------------|
:------------------------------------------------------------------------------------------|
:------------------------------------------------------------------------------------------|
:------------------------------------------------------------------------------------------|

eb:------------------------------------|
Bb:------------------------------------|
Gb:------------------------------------|
Db:-9----------------------------------|
Ab:-7--------------------------2-------|
Eb:-0----7/10/7--10/7----------0-------|

hillo son mex

2005
Comments