Zee Avi - Honey Bee Chords & Tabs

 

Zee Avi Chords & Tabs

Version: 1 Type: Tab 0 ratings
1 star 2 stars 3 stars 4 stars 5 stars
comments

Honey Bee Tab

   
Intro and Verse:
   C              E                 Am                               C
e|---------------------------------------------------0---------------------------------|
B|---------1-------------------0-----1--------1------------------1--------------1------|
G|------------0---------1---------------2--------2--------2------------------------0---|
D|----2--------------2---------------------2-----------2-----2-----------2-------------|
A|-3--3--3--------2--------2--------0---------------0----------------3---3---3---------|
E|-------------------------------------------------------------------------------------|

    G7                C
e|-------------1----------------------------0--------------|
B|--------------------------------1----------------------1-|
G|----------------0------------------0-------------0-------|
D|-----0------------------2--------------------2------2----|
A|-----2--------------3---3---3------------3---------------|
E|--3------3-----------------------------------------------|

This repeats throughout the verse.

*Add for intro

e|----------------------0-|
B|--------------1---------|
G|-----------------0------|
D|------2-----------------|
A|--3---3---3----------3--|
E|------------------------|



*Add before chorus
    C
e|----------------------0--------0------------|
B|--------------1-----------------------------|
G|-----------------0--------------------------|
D|------2-------------------------------------|
A|--3---3---3----------3-----3-------3---2----|
E|--------------------------------------------|


Chorus:
    Am                  G7                 C
e|----------------------------------1-------------------------0------------------|
B|--------------1--------------------------------------1--------------------1----|
G|-----------------2------------------0-------------------0----------0-----------|
D|------2-------------------0------------------2------------------2-----2--------|
A|--0---0---0---------------2--------------3---3---3---------3-------------------|
E|----------------------3--------3-----------------------------------------------|

    Am                  G7                 C
e|----------------------------------1-------------------------0------------------|
B|--------------1--------------------------------------1--------------------1----|
G|-----------------2------------------0-------------------0----------0-----------|
D|------2-------------------0------------------2------------------2-----2--------|
A|--0---0---0---------------2--------------3---3---3---------3-------------------|
E|----------------------3--------3-----------------------------------------------|

    C                       G7             C
e|----------------------------------1-------------------------0------------------|
B|--------------1--------------------------------------1--------------------1----|
G|-----------------0------------------0-------------------0----------0-----------|
D|------2-------------------0------------------2------------------2-----2--------|
A|--3---3---3---------------2--------------3---3---3---------3-------------------|
E|----------------------3--------3-----------------------------------------------|

   F                                      Fm
e|---------------------- 1-----------------1---|
B|--------------1---------------------1---1----|
G|-----------------2-----------2----------1----|
D|------3-------------------3-----3-------3----|
A|--3---3---3-----------3-----------------3----|
E|---------------------------------------------|
[ Tab from: http://www.guitartabs.cc/tabs/z/zee_avi/honey_bee_tab.html ]
  C               E                 Am                               C
e|---------------------------------------------------0---------------------------------|
B|---------1-------------------0-----1--------1------------------1--------------1------|
G|------------0---------1---------------2--------2--------2------------------------0---|
D|----2--------------2---------------------2-----------2-----2-----------2-------------|
A|-3--3--3--------2--------2--------0---------------0----------------3---3---3---------|
E|-------------------------------------------------------------------------------------|

    G7                C
e|-------------1----------------------------0-----------------------------------0-|
B|--------------------------------1----------------------1--------------1---------|
G|----------------0------------------0-------------0-----------------------0------|
D|-----0------------------2--------------------2------2---------2-----------------|
A|-----2--------------3---3---3------------3--------------- 3---3---3-----------0-|
E|--3------3----------------------------------------------------------------------|

Verse:
C      E
I am a honey bee
Am
Shunned out from the colony
    C         G7     C
And they won't let me in
C     E
So I left the hive
Am
They took away all my stripes
    C         G7      C
And broke off both my wings

C       E           Am
So I'll find another tree
    C        G7      C
And make the wind my friend
C        E             Am
I'll just sing with the birds
       C       G7              C
They'll tell me secrets off the world


Chorus:
Am      G           C
But my other honey bee
Am             G            C
Stuck where he doesnt wanna be
C     G             C
Oh my darling honey bee
         F
I'll come save you
           Fm                         C
Even if it means I'll have to face the queen
    E           Am       C        G7     C
Oh, pa ba pum badum pum. Paa da dadapapa dadum


Verse:
C      E
So I'll come prepared
   Am
My new friends say they would help me
C      G7        C
Get my loved one back
C           E
They say it isn't right
    Am
The bees have control of your mind
      C          G7
But I choose not to believe that
C        E           Am
 So well meet in the darkness of the night
      C              G7          C
And I promise I will be there on time
C        E            Am
 Well be guided by my new friends the butterflies
         C           G7         C
Bring us back to our own little hive


Chorus:
Am     G           C
Oh my other honey bee
                Am                   G                    C
No longer stuck where he doesnt wanna be
C     G             C
Oh my darling honey bee
       F                                 Fm
I have saved you and now that youre with me
                      C
We can make our own honey

    E           Am       C        G7     C
Oh, pa ba pum badum pum. Paa da dadapapa dadum.
Comments