Zed - Renegade Fighter Chords & Tabs

 

Renegade Fighter Chords & Tabs

Zed Chords & Tabs

Version: 6 Type: Tab 0 ratings
1 star 2 stars 3 stars 4 stars 5 stars
comments

Renegade Fighter Tab

   
-------------------------------------------------------------------------------
			     Renegade Fighter - Zed
-------------------------------------------------------------------------------
Tabbed by: Steven C
Email: phattfella@gmail.com

Tuning: E A D G B E

e|-------0-0-7-10-8-5-5---7----5--0-0-7-10-8-5-------------------------|
B|----------------------8---7------------------------------------------|
G|---------------------------------------------------------------------|
D|---------------------------------------------------------------------|
A|---------------------------------------------------------------------|
E|---------------------------------------------------------------------|
  Intro And Outro

[ Tab from: http://www.guitartabs.cc/tabs/z/zed/renegade_fighter_tab_ver_6.html ]
       A5               B5
e|---------------------------------------------------------------------|
B|---------------------------------------------------------------------|
G|---------------------------------------------------------------------|
D|---------------------------------------------------------------------|
A|--------7-------------9----------------------------------------------|
E|-----5-------------7-------------------------------------------------|


     E    E7   AM7   CMaj   D
e|--------------------------2---------------------------------|
B|-------------1------1-----3---------------------------------|
G|---1----1-----------------2---------------------------------| Repeat
D|---2---------2------2---------------------------------------| This
A|---2----2-----------3---------------------------------------|
E|------------------------------------------------------------|
Comments