Zed - Renegade Fighter Chords & Tabs

 

Renegade Fighter Chords & Tabs

Zed Chords & Tabs

Version: 2 Type: Tab 0 ratings
1 star 2 stars 3 stars 4 stars 5 stars
comments

Renegade Fighter Tab


THis is a good New Zealand band, hopefuully i can put up more tabs


can i walk up beside you, can i speak your name, can i just be here...
e-----------------------------------------------------------------------
b-------------1--1-1-1---1--1-1-1----------------------1--1-1-1-------
g---1--1-1-1--2--2-2-2---2--2-0-2--1--1-1-1--1--1-1-1--2--2-0-2-------
d---2--2-0-2--2--2-2-2---2--2-2-2--2--2-2-2--2--2-0-2--2--2-2-2-------
A---2--2-2-2-----------------------2--2-2-2--2--2-2-2-----------------
E---------------------------------------------------------------------

play that twice but different lyrics then...
[ Tab from: http://www.guitartabs.cc/tabs/z/zed/renegade_fighter_tab_ver_2.html ]
1) i'm a lover, i'm a winner i'm a fighter
2) i'm a lover, i'm a renegade fighter
e--------------------------------------------------------------------
b--------------------------------------------------------------------
g-1--1-1-1--1--1-1-1-------------------------------------------------
d-2--2-2-2--2--2-0-2-------------------------------------------------
A-2--2-2-2--2--2-2-2-------------------------------------------------
E--------------------------------------------------------------------

1) gonna set your soul on fire
2) gonna set your soul on fire
e--------------------------------------------------------------------
b-1--1-1-1--1--1-1-1-------------------------------------------------
g-2--2-2-2--2--2-0-2-------------------------------------------------
d-2--2-2-2--2--2-2-2-------------------------------------------------
A--------------------------------------------------------------------
E--------------------------------------------------------------------


continue that strumming for the rest of the song , its pretty simple.
for any questions or if anythings wrong 
email me at www.sam-h@zfree.com










Comments