Zed - Im Cold Chords & Tabs

 

Im Cold Chords & Tabs

Zed Chords & Tabs

Version: 2 Type: Tab 0 ratings
1 star 2 stars 3 stars 4 stars 5 stars
comments

Im Cold Tab

   
unforgiven@paradise.net.nz
    
   I'm Cold
   Zed
    
   Tabbed by Nic Young 
   http://garbageman.cjb.net
    
   This is the second single from Zed. Hope you like it.
    
   Verse:
   E                      Gm           A              Gm
   I've been waiting for years now or so it seems
   E                        Gm          A               Gm
   I've been waiting for word to come down on what's up
   E                  Gm          A                     Gm
   I've been rolling over trying to get some sleep
        E                    Gm        A               Gm
   But the night is cold and someone's taken my bed
    
   Chorus:
             E    G   F#   A
   And I'm cold
                   E            G  F#  A
   More than you'll ever know
             E   G  F#  A
   Yeah I'm cold 
         E   G  F#  A
   Or so I'm told
    
   I tabbed the melody as well. Here it is:
   Verse:
   e----------------|---------|    
   B----0-0-0-0-2-0-|-----0---|    
   G-1--------------|-1-2---2-| Repeat that twice   
   D----------------|---------|      then:  
   A----------------|---------|
   E----------------|---------|
    
   e---------0-2-0-0---0-2-0-|
   B---0-0-0---------0-------|
   G-1-----------------------|
   D-------------------------|
   A-------------------------|
   E-------------------------|
    
   Chorus:
   e---2-0-|-----0-4-0-0-|---2-0-|---2-----4-0-|
   B-0-----|-0-0---------|-0-----|-0---0-0-----|
   G-------|-------------|-------|-------------|
   D-------|-------------|-------|-------------|
   A-------|-------------|-------|-------------|
   E-------|-------------|-------|-------------|
[ Tab from: http://www.guitartabs.cc/tabs/z/zed/im_cold_tab_ver_2.html ]
Comments