Zebras - Venus Chords & Tabs

 

Venus Chords & Tabs

Zebras Chords & Tabs

Version: 1 Type: Tab 0 ratings
1 star 2 stars 3 stars 4 stars 5 stars
comments

Venus Tab

   
The Zebras - Venus
Tabbed By: Sultan of Shamrock
EMail: castor_m_@hotmail.com


Guitar 1-Dave Herrick
Guitar 2-T.J.

Let Ring

Guitar 1:
e---------------------------------------------------------------------
A---------------------------------------------------------------------
D-------3------------3-------0----0------------2---------------0------
G----0----0~------0--------4----4---4p0------5---5---------3-----3---3
B-4------------4-------0-2-----------------5-------5-----3---3-----3--
E----------------------------------------3-----------3-1--------------

Guitar 2:
e----------0-----0-------
A-3---3---3--3-----3----3
D-4-4-4-4-4----4-----4---
G---5---5----------------
B------------------------
E------------------------

Both:
e----------------------------------------------------------------------------
A----------------------------------------------------------------------------
D-3-3-3-3-3-3-3-3-0-0-0-0-0-0-0-0-0-0-0-0-2-2-2-2-2-2-2-2-2-2-2-2-2-2-2-2-2-2
G-0-0-0-0-0-0-0-0-0-4-4-4-4-4-4-4-4-4-4-0-5-5-5-5-5-5-5-5-5-3-3-3-3-3-3-3-3-3
B-4-4-4-4-4-4-4-4---2-2-2-2-2-2-2-2-2-2---5-5-5-5-5-5-5-5-5-3-3-3-3-3-3-3-3-3
E-----------------------------------------3-3-3-3-3-3-3-3-3-1-1-1-1-1-1-1-1-1
[ Tab from: http://www.guitartabs.cc/tabs/z/zebras/venus_tab.html ]
Guitar 1:
e---------------------------------
A---------------0-----------------
D-----2-------0------------------0
G---2--2----0---------3--------3--
B-0-------3---------3---3----3----
E-----------------1--------3------

Solo
Guitar 1:                     T        T        T        T
e-----------------------------17p15p12-17p15p12-17p15p12-17p15p12-----------------
A-12^-------------------------------------------------------------12^-12^-12^-12\9
D-12~-----9-9-9/7/6/4/2\12~---------------------------------------12^-12^-12^-12\9
G---------------------------------------------------------------------------------
B---------------------------------------------------------------------------------
E---------------------------------------------------------------------------------

e----------------------------------
A----------------15---17---15------
D-12-15-13-14-16----7----9----7--12
G--------------------------------12
B----------------------------------
E----------------------------------


Both:
e---------------------------------------------------------------------
A---------------------------------------------------------------------
D-------3------------3-------0----0------------2---------------0------
G----0----0~------0--------4----4---4p0------5---5---------3-----3---3
B-4------------4-------0-2-----------------5-------5-----3---3-----3--
E----------------------------------------3-----------3-1--------------
Comments