Zebras - Son Of A Bitch Chords & Tabs

 

Son Of A Bitch Chords & Tabs

Zebras Chords & Tabs

Version: 1 Type: Bass Tab 0 ratings
1 star 2 stars 3 stars 4 stars 5 stars
comments

Son Of A Bitch Bass Tab

   
The Zebras - Son Of A Bitch

5 String bass tuned half a step down.

Intro:

Gb--------------------------------------------------
Db--------------------------------------------------
Ab--------------------------------------------------
Eb-6-66-6-66-6-66-6-66-6-66-6-66-6-66-6-66-6-66-6-66
Bb--------------------------------------------------


Main Riff:

Gb-------------------------------------------------------------------
Db-----------------------------------------------0^------------------
Ab-------------------------------------------------------------------
Eb---------3--3-3----------------------------1p2---------------------
Bb-1--1-1--------3-2-1-0---3-3-0-3----1--1-1---------3-2-1-2--0-0-3-0


Verse 1: (x4)

Gb------------------------------------------------------
Db--------------------------------------5---------------
Ab---------1-1p2----------1p2---------5-----------------
Eb---------------------1p2----------3-------------------
Bb-/3--0-3-------3--0-3------3--0-3------3--0-3---------


Pre Chours:

Gb---------------------------------------------------------------
Db---------------------------------------------------------------
Ab---------------------------------------------------------------
Eb-3-3-3-3-3-3-------3-3-3-3-3-3--------3-3-3-3-5-7-8-10-10-10-10
Bb-------------0-----------------0-------------------------------


Chours:

Gb-------------------------------------------------------------------
Db-----------------------------------------------0^------------------
Ab-------------------------------------------------------------------
Eb---------3--3-3----------------------------1p2---------------------
Bb-1--1-1--------3-2-1-0---3-3-0-3----1--1-1---------3-2-1-2--0-0-3-0


Verse 2: (x4)
[ Tab from: http://www.guitartabs.cc/tabs/z/zebras/son_of_a_bitch_btab.html ]
Gb----------------------------------0--------------------
Db-------------------------5---------2-------------------
Ab---------5-5-3--------2-2-----------2------------------
Eb-----------------------3-------------0-----------------
Bb-/3--0-3-------3--0-3------3--0-3------3--0-3----0-----

Pre Chours:

Gb---------------------------------------------------------------
Db---------------------------------------------------------------
Ab---------------------------------------------------------------
Eb-3-3-3-3-3-3-------3-3-3-3-3-3--------3-3-3-3-5-7-8-10-10-10-10
Bb-------------0-----------------0------------------------------


Chours:

Gb-------------------------------------------------------------------
Db-----------------------------------------------0^------------------
Ab-------------------------------------------------------------------
Eb---------3--3-3----------------------------1p2---------------------
Bb-1--1-1--------3-2-1-0---3-3-0-3----1--1-1---------3-2-1-2--0-0-3-0


During Guitar Solo:

Gb-------------------------------------------------------------------
Db-----------------------------------------------0^------------------
Ab-------------------------------------------------------------------
Eb---------3--3-3----------------------------1p2---------------------
Bb-1--1-1--------3-2-1-0---3-3-0-3----1--1-1---------3-2-1-2--0-0-3-0


Break Down:

Gb--------------------------------------------------
Db--------------------------------------------------
Ab--------------------------------------------------
Eb-6-66-6-66-6-66-6-66-6-66-6-66-6-66-6-66-6-66-6-66
Bb--------------------------------------------------


Outro:

Gb-------------------------------------------------------------------
Db-----------------------------------------------0^------------------
Ab-------------------------------------------------------------------
Eb---------3--3-3----------------------------1p2---------------------
Bb-1--1-1--------3-2-1-0---3-3-0-3----1--1-1---------3-2-1-2--0-0-3-0
Comments