Zebrahead - Wannabe Chords & Tabs

 

Wannabe Chords & Tabs

Zebrahead Chords & Tabs

Version: 1 Type: Tab 0 ratings
1 star 2 stars 3 stars 4 stars 5 stars
comments

Wannabe Tab

Wannabe - Zebrahead

http://www.zebrahead.org

Tab Written by:
Kusha Karimi (kusha@limpbizkit.com)

/ = slide up
h = hammer on

Intro/Outro:

e|----------------------------------|
B|----------------------------------|
G|--------7-x-7-/-9-x-9-------------|
D|--9 x-9-7-x-7-/-9-x-9-7-7-/-8-/---|
A|--9-x-9-5-x-5-/-7-x-7-7-7-/-8-/---|
E|--7-x-7---------------5-5-/-6-/---| repeat

    "I'll tell ya what I want..."

Verse:
[ Tab from: http://www.guitartabs.cc/tabs/z/zebrahead/wannabe_tab.html ]
e|-----xx-2-xxxx-2-----xx-2-xxxx-2-----xx-2-xxxx-2-----xxxx-2h4-2-2------|
B|-3h4-------------3h4-------------3h4-------------3h4-------------------|
G|-----------------------------------------------------------------------|
D|-----------------------------------------------------------------------|
A|-----------------------------------------------------------------------|
E|-----------------------------------------------------------------------| repeat

    "If you want my future..."

Chorus:

e|-------------------------------------|
B|-------------------------------------|
G|--------------------------4-4-4-4-4--|
D|-4-4-4-/-6-6-6-6-6--2-2-2-4-4-4-4-4--|
A|-4-4-4-/-6-6-6-6-6--2-2-2-2-2-2-2-2--|
E|-2-2-2-/-4-4-4-4-4--0-0-0------------|

    "If you wanna be my lover..."


Order of riffs:
--------------
Intro
Verse
Intro
Chorus
Verse
Intro
Chorus
Intro
Chorus
Outro
Comments