Zebrahead - Walk Away Chords & Tabs

 

Walk Away Chords & Tabs

Zebrahead Chords & Tabs

Version: 1 Type: Tab 0 ratings
1 star 2 stars 3 stars 4 stars 5 stars
comments

Walk Away Tab

Zebrahead
Waste of Mind tab
by Ryan

Walk Away - Standard tuning

Intro/ Chorus
==============
1)--------------------------
2)--------------------------
3)-4-4-4-------9-9-9--------
4)-4-4-4--2----9-9-9-7--6-7-
5)-2-2-2--2----7-7-7-7--6-7-
6)--------0----------5--4-5-

Riff 1
=========
1)-8b-
2)----
3)----
4)----
5)----
6)----

Riff 2
=========
1)---------------
2)---------------
3)-7-7-7-7-7-7-6-
4)-7-7-7-7-7-7-6-
5)-5-5-5-5-5-5-4-
6)---------------
[ Tab from: http://www.guitartabs.cc/tabs/z/zebrahead/walk_away_tab.html ]
Bridge
=========
guitar 1 with wah
1)-xx7xx7-
2)-xx7xx7-
3)-xx7xx7-
4)--------
5)--------
6)--------

guitar 2
1)-------10-----------------10-------10----
2)----12----12--12-12----12----12-------12-
3)-11-----------------11----------11-------
4)-----------------------------------------
5)-----------------------------------------
6)-----------------------------------------

1)-------10----------10----------10----12-10-------
2)----12----12----12----12----12----12-------12-10-
3)-12----------12----------12----------------------
4)-------------------------------------------------
5)-------------------------------------------------
6)-------------------------------------------------
Comments