Zebrahead - Time Chords & Tabs

 

Time Chords & Tabs

Zebrahead Chords & Tabs

Version: 1 Type: Bass Tab 0 ratings
1 star 2 stars 3 stars 4 stars 5 stars
comments

Time Bass Tab

Key:
 = Slide Down

Riff 1:

G---------------------------------|
D---------------------------------|
A---------------------------------|
E-12------------------------------|

Riff 2:

G--------------------------------|
D--------------------------------|
A---7----7--------7----7---------|
E-0----0----5---0----0----6------|

Riff 3:

G----------------------------------------------|
D----------------------------------------------|
A-7-7-7-7-7-7-7-7--8-8--7-7-7-7-7-7-7-7--------|
E----------------------------------------6-6---|

Riff 3 (cont.):
[ Tab from: http://www.guitartabs.cc/tabs/z/zebrahead/time_btab.html ]
G------------------------------------------------|
D------------------------------------------------|
A-7-7-7-7-7-7-7-7--8-8---------------------------|
E-----------------------6-6-6-6-6-6-6-6--5-5-----|

Riff 4:

G------------------------------------|
D------------------------------------|
A------------------------------------|
E-1---2-1----------------------------|

Riff 5:

G------------------------------|
D------------------------------|
A------------------------------|
E-0------------0---------------|

Order:

Riff 1 x 8
Riff 2 x 4
Riff 3 x 4
Riff 2 x 4
Riff 3 x 2
Riff 4 x 4
Riff 2 x 8
Riff 5 x 1
Riff 3 x 4
Riff 2 x 4
Comments