Zebrahead - Someday Chords & Tabs

 

Someday Chords & Tabs

Zebrahead Chords & Tabs

Version: 2 Type: Tab 0 ratings
1 star 2 stars 3 stars 4 stars 5 stars
comments

Someday Tab

------------------------------------------------------------------------------ 
   ---------------- 
   Someday - Zebrahead 
   http://listen.to/zebrahead 
   ------------------------------------------------------------------------------ 
   ---------------- 

   Tabbed By: Jason "da nip" Nelson 
   Email me with problems, threats and everything else: Scooby_182@hotmail.com 
[ Tab from: http://www.guitartabs.cc/tabs/z/zebrahead/someday_tab_ver_2.html ]
   Riff 1: 
   e|--------------------------------------------------------------------| 
   B|--------------------------------------------------------------------| 
   G|--------------------------------------------------------------------| 
   D|---------9---6---7-6--------9--------------------------------------------| 
   A|---7-0-7---4---4-----7-0-7----7---7---9-----------------------------------| 
   E|--------------------------------5---7---------------------------------| 
   Riff 1 (guitar 2): 
   e|--------------------------------------------------------------------| 
   B|--------------------------------------------------------------------| 
   G|--------------------------------------------------------------------| 
   D|-99xx-66xx-99xx----------------------------------------------------------| 
   A|-77xx-44xx-77xx-77-99------------------------------------------------------| 
   E|----------------55-77---------------------------------------------------| 
   Riff 2: 
   e|--------------------------------------------------------------------| 
   B|--------------------------------------------------------------------| 
   G|--------------------------------------------------------------------| 
   D|---99-99-99-----------------------------------------------------------| 
   A|---77-77-77----7----9------------------------------------------------------- 
   | 
   E|------------55---77-----------------------------------------------------| 
   Riff 3: 
   e|--------------------------------------------------------------------| 
   B|--------------------------------------------------------------------| 
   G|--------------------------------------------------------------------| 
   D|--9999999999999999-7777777777777777---------------------------------| 
   A|--7777777777777777-5555555555555555---------------------------------| 
   E|--------------------------------------------------------------------| 
   Solo: 
   e|-----------11-12-------14(bend)-12------------------------------| 
   B|--------12-------------------------12-----------------------------------| 
   G|-----13----------14-13----------------14-13------------------------| 
   D|--14------------------------------------------------------------------| 
   A|--------------------------------------------------------------------| 
   E|--------------------------------------------------------------------| 

   e|-----------11-12-------14(bend)-12-12-11-12--------------------------| 
   B|--------12------------------------------------------------------------| 
   G|-----13----------14-13----------------------------------------------------| 
   D|--14------------------------------------------------------------------| 
   A|--------------------------------------------------------------------| 
   E|--------------------------------------------------------------------| 

   e|--19-16----19-16----19----17-14----17-14----17----16-12----16-12----16----| 
   B|--------17-------17----17-------16-------16----16-------14-------14----14-12 
   -| 
   G|--------------------------------------------------------------------| 
   D|--------------------------------------------------------------------| 
   A|--------------------------------------------------------------------| 
   E|--------------------------------------------------------------------| 

   e|--16-16-16-14-14-14-12-12-12-11-11-11-------------------------------| 
   B|--17-17-17-16-16-16-14-14-14-12-12-12-----------------------------| 
   G|--------------------------------------------------------------------| 
   D|--------------------------------------------------------------------| 
   A|--------------------------------------------------------------------| 
   E|--------------------------------------------------------------------| 

   The order: 
   Riff 1 x4 (guitar 2 comes in second time) 
   Riff 2 x4 
   Riff 1 x4 both parts 
   Riff 2 x4 
   Riff 1 x4 both parts 
   Riff 3 x2 
   Solo 
   Riff 1 x2 guitar 1 only 
   Riff 2 x2 
   Riff 1 x4 
   Riff 3 x2 
   Riff 1 x2 both parts 
   =======================================================================
Comments