Zebrahead - Runaway Chords & Tabs

 

Runaway Chords & Tabs

Zebrahead Chords & Tabs

Version: 1 Type: Tab 0 ratings
1 star 2 stars 3 stars 4 stars 5 stars
comments

Runaway Tab

e---------------------------------------------------------------------------|
B---------------------------------------------------------------------------|
G---------------------------------------------------------------------------|
D---------------------------------7-----7-----7-----7-----7---7-------------|
A-7-----7-----7-----7-----7---7---5-5-5-5-5-5-5-5-5-5-5-5-5-5-5-5-----------|
E-5-5-5-5-5-5-5-5-5-5-5-5-5-5-5-5-------------------------------------------|


e---------------------------------------------------------------------------|
B---------------------------------------------------------------------------|
G---------------------------------------------------------------------------|
D---------------------------------7-----7-----7-----7-----7---7-------------|
A-7-----7-----7-----7-----7---7---5-5-5-5-5-5-5-5-5-5-5-5-5-5-5-5-----------|
E-5-5-5-5-5-5-5-5-5-5-5-5-5-5-5-5-------------------------------------------|
  she wakes up in the morning in
  the same room the she's been in
  her whole life


e---------------------------------------------------------------------------|
B---------------------------------------------------------------------------|
G---------------------------------------------------------------------------|
D---------------------------------7-----7-----7-----7-----7---7-------------|
A-7-----7-----7-----7-----7---7---5-5-5-5-5-5-5-5-5-5-5-5-5-5-5-5-----------|
E-5-5-5-5-5-5-5-5-5-5-5-5-5-5-5-5-------------------------------------------|
  and everything still looks the                          she said
  same but the feeling of the room
  has changed in spite

[ Tab from: http://www.guitartabs.cc/tabs/z/zebrahead/runaway_tab.html ]
e---------------------------------------------------------------------------|
B---------------------------------------------------------------------------|
G---------------------------------------------------------------------------|
D---------------------------------7-----7-----7-----7-----7---7-------------|
A-7-----7-----7-----7-----7---7---5-5-5-5-5-5-5-5-5-5-5-5-5-5-5-5-----------|
E-5-5-5-5-5-5-5-5-5-5-5-5-5-5-5-5-------------------------------------------|
  you don't know what it's like                           she said
  to be stuck in my mind


e---------------------------------------------------------------------------|
B---------------------------------------------------------------------------|
G---------------------------------------------------------------------------|
D---------------------------------7-----7-----7-----7-----7---7-------------|
A-7-----7-----7-----7-----7---7---5-5-5-5-5-5-5-5-5-5-5-5-5-5-5-5-----------|
E-5-5-5-5-5-5-5-5-5-5-5-5-5-5-5-5-------------------------------------------|
  you don't know what it's like
  to be stuck in my mind all the time

e---------------------------------------------------------------------------|
B---------------------------------------------------------------------------|
G---------------------------------------------------------------------------|
D---------------------------------------------------------------------------|
A-7--7--7--7--7--7--4--4--4--4--4--7--7--7--7--7--7--4--4--4--4--4----------|
E-5--5--5--5--5--5--2--2--2--2--2--5--5--5--5--5--5--2--2--2--2--2----------|
  [listen to the part to find the rythm]


     Chorus (2x)
e---------------------------------------------------------------------------|
B---------------------------------------------------------------------------|
G---------------------------------------------------------------------------|
D------------------9-9-9-9-9-9-9-9-------------------7-7-7-7-7-7-7-7--------|
A-7-7-7-7-7-7-7-7--7-7-7-7-7-7-7-7--4-4-4-4-4-4-4-4--5-5-5-5-5-5-5-5--------|
E-5-5-5-5-5-5-5-5-------------------2-2-2-2-2-2-2-2-------------------------|

and this whole thing pretty much repeats till the rest of the song
Comments