Zebrahead - Rescue Me Chords & Tabs

 

Rescue Me Chords & Tabs

Zebrahead Chords & Tabs

Version: 1 Type: Tab 0 ratings
1 star 2 stars 3 stars 4 stars 5 stars
comments

Rescue Me Tab

   
-------------------------------------------------------------------------------
			     Zebrahead - rescue me
-------------------------------------------------------------------------------
Tabbed by:Tom Kyle
Email:Tombotownusa@hotmail.com
[ Tab from: http://www.guitartabs.cc/tabs/z/zebrahead/rescue_me_tab.html ]
Tuning: Standard
Intro - guitar 1
e|----------------------------------------------0-0--------------------------|
B|----------------------------------------------0-0--------------------------|
G|--1111x---x9-9x77777------1111----------9-9------9-11----------------------|
D|--1111x7-7x9-9x77777--x5--111111111111119-9------9-11----------------------|
A|---9-9x7-7x7-7x55555-------9-9-9-9-9-9-97-7------7--9----------------------|
E|-------5-5-----------------------------------------------------------------|
Intro - guitar 2	   . . . . . .
e|---------------------------------------------------------------------------|
B|---------------------------------------------------------------------------|
G|-x/--------------77777-----------------------------------------------------|
D|-x/--4447-7x2-2x-77777--x3---44-----2-2-2-222-4----------------------------|
A|-----4447-7x2-2x-55555-------44444442-2-2-222-4----------------------------|
E|-----2222-5x0-0x-------------22222220-0-0-000-2----------------------------|
Verse -  Guitar 1 PM	    .....
e|---------------------------------------------------------------------------|
B|---------------------------------------------------------------------------|
G|--x/---------------7777----------------------------------------------------|
D|--x/---4444777722227777----------------------------------------------------|
A|-------4444777722225555----------------------------------------------------|
E|-------222255550000--------------------------------------------------------|
Pre-chorus 
e|---------------------------------------------------------------------------|
B|---------------------------------------------------------------------------|
G|------------------------------------------------x/------elevens not ones---|
D|--1111111111111111-777777-----------------------x/---------by the way------|
A|--------------------------9-77777777-55555555------------------------------|
E|---------------------------------------------------------------------------|
Chorus  ....    ....   ..       ..  ..   ..  ..
e|---------------------------------------------------------------------------|
B|---------------------------------------------------------------------------|
G|------------------7777777777777777----------------9999999999999999---------|
D|--4444444444444444777777777777777777777777777777779999999999999999---------|
A|--4444444444444444555555555555555577777777777777777777777777777777---------|
E|--2222222222222222----------------5555555555555555-------------------------|
Bridge
e|---------------------------------------------------------------------------|
B|---------------------------------------------------------------------------|
G|---------------------------------------------------------------------------|
D|--44xx44xx442-2222---------------------------------------------------------|
A|--44xx44xx442-2222---------------------------------------------------------|
E|--22xx22xx220-0000---------------------------------------------------------|
Tis guud shit

| /  slide up
| \  slide down
| h  hammer-on
| p  pull-off
| ~  vibrato
| +  harmonic
| x  Mute note
===============================================================================
Comments