Zebrahead - Playmate Of The Year Chords & Tabs

 

Playmate Of The Year Chords & Tabs

Zebrahead Chords & Tabs

Version: 4 Type: Tab 0 ratings
1 star 2 stars 3 stars 4 stars 5 stars
comments

Playmate Of The Year Tab

Artist: Zebrahead
Song: Playmate of the Year

Album: Playmate of the Year

E-Mail: beefynerd@www.com

Tabbed by Jeremy Burgess

 

Zebrahead is one of my favorite bands, and I havent seen hardly any tabs of their music,
so I am making as many as I can.  This is the first of a lot, and here it is.

 

Intro and verses: (guitar one)

 

E|--------------------------------
B|--------------------------------
G|--------2-2----4-4-4-4-4-4-4-4--
D|-2-2---2-2----4-4-4-4-4-4-4-4---
A|-2-2---0-0----2-2-2-2-2-2-2-2---
E|-0-0----------------------------
 

Intro and verses: (guitar two)

 

E|-4---4---7---7---5---5---2---2---4---4---7---7---5---5---2---2-----
B|---5---5---5---5---5---5---5---5---5---5---5---5---5---5---5---5---
G|-------------------------------------------------------------------
D|-------------------------------------------------------------------
A|-------------------------------------------------------------------
E|-------------------------------------------------------------------

 

Chorus (1st time):
[ Tab from: http://www.guitartabs.cc/tabs/z/zebrahead/playmate_of_the_year_tab_ver_4.html ]
E|-------------------------------------------------------------------
B|-------------------------------------------------------------------
G|-9-9-9-9-9-9-9-9-4-4-4-4-4-4-4-4-2-2-2-2-2-2-2-2-4-4-4-4-4-4-4-4---
D|-9-9-9-9-9-9-9-9-4-4-4-4-4-4-4-4-2-2-2-2-2-2-2-2-4-4-4-4-4-4-4-4---
A|-7-7-7-7-7-7-7-7-2-2-2-2-2-2-2-2-0-0-0-0-0-0-0-0-2-2-2-2-2-2-2-2---
E|-------------------------------------------------------------------

 

2nd time play the same thing but add this at the end:

E|---------------------
B|---------------------
G|-2-2-2-2-2-2-2-2-4---
D|-2-2-2-2-2-2-2-2-4---
A|-0-0-0-0-0-0-0-0-2---
E|---------------------
 

Play this when Ali starts rappin:

E|------------------------------------------
B|------------------------------------------
G|------------------------------------------
D|------------------------------------------
A|-7-----9---6------4---6---7------0----2---
E|------------------------------------------

 

Solo (1st riff):

E|--------------------------------------------
B|-9--9-9-9-7-5-7--4-4-7-4-5--2-2-5-2-4-2-0---
G|--------------------------------------------
D|--------------------------------------------
A|--------------------------------------------
E|--------------------------------------------
 

Solo (2nd riff)

E|-7--7-7-7-5-3-5--2-2-5-2-3--0-0-3-0-2-0-0---
B|-9--9-9-9-7-5-7--4-4-7-4-5--2-2-5-2-4-2-0---
G|--------------------------------------------
D|--------------------------------------------
A|--------------------------------------------
E|--------------------------------------------
 

Thats the whole song.  E-mail me if you have any questions.
Comments