Zebrahead - Move On Chords & Tabs

 

Move On Chords & Tabs

Zebrahead Chords & Tabs

Version: 1 Type: Tab 0 ratings
1 star 2 stars 3 stars 4 stars 5 stars
comments

Move On Tab

Zebrahead
Waste of Mind tabs
by Ryan

Move On - Stnadard Tuning

Intro
=========
1)-3-3-3-3-3-3-3-3-3-3-3-3-8--8--8--8--8--8--8--8--8--8--8--8--
2)-3-3-3-3-3-3-3-3-3-3-3-3-8--8--8--8--8--8--8--8--8--8--8--8--
3)-4-4-4-4-4-4-4-4-4-4-4-4-9--9--9--9--9--9--9--9--9--9--9--9--
4)-5-5-5-5-5-5-5-5-5-5-5-5-10-10-10-10-10-10-10-10-10-10-10-10-
5)-------------------------------------------------------------
6)-------------------------------------------------------------

1)-3-3-3-3-3-3-3-3-3-3-3-3-10-10-10-10-10-10-10-10-10-10-10-10-
2)-3-3-3-3-3-3-3-3-3-3-3-3-10-10-10-10-10-10-10-10-10-10-10-10-
3)-4-4-4-4-4-4-4-4-4-4-4-4-11-11-11-11-11-11-11-11-11-11-11-11-
4)-5-5-5-5-5-5-5-5-5-5-5-5-12-12-12-12-12-12-12-12-12-12-12-12-
5)-------------------------------------------------------------
6)-------------------------------------------------------------

Riff 1
==========
1)---------------------------------------------------
2)---------------------------------------------------
3)---------------------------------------------------
4)-12-12-12-12-14-12-12-9-12-10-9-10-9-10-10-9-10-12-
5)---------------------------------------------------
6)---------------------------------------------------
[ Tab from: http://www.guitartabs.cc/tabs/z/zebrahead/move_on_tab.html ]
1)-------------------------------------
2)-------15b-13-12-13-15-13-12---------
3)----12-----------------------14-16/--
4)-12----------------------------------
5)-------------------------------------
6)-------------------------------------

Riff 2
===========
1)---------------------------------------------------
2)---------------------------------------------------
3)---------------------------------------------------
4)-12-12-12-12-14-12-12-9-12-10-9-10-9-10-10-9-10-12-
5)---------------------------------------------------
6)---------------------------------------------------

1)-19-19-19-17-15-17-15----------
2)----------------------19-15----
3)----------------------------16-
4)-------------------------------
5)-------------------------------
6)-------------------------------

Riff 3 
============
1)-3--3--3--3--8--8--8--8--3--3--3--3--8--8--8--8--3--3--3--3--8--8--8--8-
2)-3--3--3--3--8--8--8--8--3--3--3--3--8--8--8--8--3--3--3--3--8--8--8--8-
3)-4--4--4--4--9--9--9--9--4--4--4--4--9--9--9--9--4--4--4--4--9--9--9--9-
4)-5--5--5--5--10-10-10-10-5--5--5--5-10-10-10-10--5--5--5--5-10-10-10-10-
5)------------------------------------------------------------------------
6)------------------------------------------------------------------------

1)---------2-2-2-2-
2)-5-5-5-5-2-2-2-2-
3)-4-4-4-4-3-3-3-3-
4)-6-6-6-6-4-4-4-4-
5)-7-7-7-7---------
6)-----------------

Riff 4
==========
1)--------------------------
2)--------------------------
3)----------5-4-2-2-2-2-5-4-
4)-5-5-5-5--5-4-2-2-2-2-5-4-
5)-5-5-5-5--3-2-0-0-0-0-3-2-
6)-3-3-3-3------------------
Comments