Zebrahead - Jag Off Chords & Tabs

 

Jag Off Chords & Tabs

Zebrahead Chords & Tabs

Version: 1 Type: Tab 0 ratings
1 star 2 stars 3 stars 4 stars 5 stars
comments

Jag Off Tab

   
Zebrahead - Jag Off

Play it with a funky grove, and listen to the song for the exact rythm.  If anyone knows the second half of the guitar solo, post it!

Intro/verse riff:

   C#             F# (kinda)      C#             F#
e|-9--9---x--x-x--12-12-12-12-x-x-9--9---x--x-x--12-12-12-12-x-x
B|-9--9---x--x-x--11-11-11-11-x-x-9--9---x--x-x--11-11-11-11-x-x
G|-10-10--x--x-x--11-11-11-11-x-x-10-10--x--x-x--11-11-11-11-x-x
D|-11-10--x--x-x--11-11-11-11-x-x-11-10--x--x-x--11-11-11-11-x-x
A|-11-11--x--x-x--9--9--9--9--x-x-11-11--x--x-x--9--9--9--9--x-x
E|-9--9---x--x-x--------------x-x-9--9---x--x-x--------------x-x
[ Tab from: http://www.guitartabs.cc/tabs/z/zebrahead/jag_off_tab.html ]
  C#             F#              C#             F#
|-9--9---x--x-x--12-12-12-12-x-x-9--9---x--x-x--12-13-12-9--x-x
|-9--9---x--x-x--11-11-11-11-x-x-9--9---x--x-x--11-11-11-11-x-x
|-10-10--x--x-x--11-11-11-11-x-x-10-10--x--x-x--11-11-11-11-x-x
|-11-10--x--x-x--11-11-11-11-x-x-11-10--x--x-x--11-11-11-11-x-x
|-11-11--x--x-x--9--9--9--9--x-x-11-11--x--x-x--9--9--9--9--x-x
|-9--9---x--x-x--------------x-x-9--9---x--x-x--------------x-x


Bridge and chorus (Repeat a few times. Could also be played an octave up):

   F#                      F E                       F
e|-2-2-2-2---2-2-2-2-2---2-1-0-0-0-0---0-0-0-0-0---0-1
B|-2-2-2-2---2-2-2-2-2---2-1-0-0-0-0---0-0-0-0-0---0-1
G|-3-3-3-3---3-3-3-3-3---3-2-1-1-1-1---1-1-1-1-1---1-2
D|-4-4-4-4---4-4-4-4-4---4-3-2-2-2-2---2-2-2-2-2---2-3
A|-4-4-4-4---4-4-4-4-4---4-3-2-2-2-2---2-2-2-2-2---2-3
E|-2-2-2-2---2-2-2-2-2---2-1-0-0-0-0---0-0-0-0-0---0-1
Comments