Zebrahead - Into You Chords & Tabs

 

Into You Chords & Tabs

Zebrahead Chords & Tabs

Version: 1 Type: Tab 0 ratings
1 star 2 stars 3 stars 4 stars 5 stars
comments

Into You Tab

   
Zebrahead - "Into You"
Album: MFZB
Tabbed by: Matt Longpre
email: nemesis_257@shaw.ca


Standard Tuning

Intro

Lead

E|--0-----------4----------7-----------5---------------|
B|-----5-4-5-------5-4-5------5-4-5-------5-4-5--------|
G|-----------------------------------------------------|
D|-----------------------------------------------------|
A|-----------------------------------------------------|
E|-----------------------------------------------------|

Rhythm

E|-----------------------------------------------------|
B|-----------------------------------------------------|
G|---------------4-4--4444-----------------2-2--2222---|
D|--2-2--2222----4-4--4444----4-4--4444----2-2--2222---|
A|--2-2--2222----2-2--2222----4-4--4444----0-0--0000---|
E|--0-0--0000-----------------2-2--2222----------------|
         pm           pm           pm          pm

    last time
E|--------------|
B|--------------|
G|--2-2222222---|
D|--2-2222222---|
A|--0-0000000---|
E|--------------|


Verse

E|-------------------------|
B|-------------------------|
G|-------------------------|
D|--2-2------------7----7--|
A|--2-2------------5----7--|
E|--0-0------------5----5--|


E|-------------------------------------------------|
B|-------------------------------------------------|
G|-------------------------------------------------|
D|--2-2--------2-2--------2-2---------2-2---7--7---|
A|--2-2--2222--2-2--2222--2-2--22222--2-2---5--7---|
E|--0-0--0000--0-0--0000--0-0--00000--0-0---5--5---|
         pm         pm         pm

E|---------------------------|
B|---------------------------|
G|---------------------------|
D|--7777--7777--6666--4444---|
A|--7777--7777--7777--4444---|
E|--5555--5555--4444--2222---|
    pm           release
[ Tab from: http://www.guitartabs.cc/tabs/z/zebrahead/into_you_tab.html ]
Chorus
                                             1st time        "Hey, Hey" 
E|----0----------------------------------|-------------| |----------------|
B|----0----------------------------------|-------------| |----------------|
G|----x----------4-4--4444---------------|--2-2--2222--| |-2-2--2--2-2--2-|
D|--2-2--2222----4-4--4444----4-4--4444--|--2-2--2222--| |-2-2--2--2-2--2-|
A|--2-2--2222----2-2--2222----4-4--4444--|--0-0--0000--| |-0-0--0--0-0--0-|
E|--0-0--0000-----------------2-2--2222--|-------------| |----------------|
                                                           pm      pm
    last time
E|-------------| |---------------------------------------------|
B|-------------| |---------------------------------------------|
G|-------------| |-9999-9999-8888-8888-6666-6666-4444-4444-----|
D|--2222-2222--| |-9999-9999-9999-9999-6666-6666-4444-4444-----|
A|--0000-0000--| |-7777-7777-6666-6666-4444-4444-2222-2222-----|
E|-------------| |---------------------------------------------|
    pm   pm

E|---------------|
B|---------------|
G|-2----4----4-4-|
D|-2----4----4-4-|
A|-0----2----2-2-|
E|---------------|


Bridge

E|---------------------|
B|---------------------|
B|---------------------|
D|-2222-2222-2222--2-2-|
A|-2222-2222-2222--2-2-|
E|-0000-0000-0000--0-0-|
   pm   pm  release

E|------------------------------------------|
B|------------------------------------------|
G|-6666-666-8-9999-9999-6666-6666-4444-4444-|
D|-6666-666-8-9999-9999-6666-6666-4444-4444-|
A|-4444-444-6-7777-7777-4444-4444-2222-2222-|
E|------------------------------------------|

E|------------------------------------------| |-----|
B|------------------------------------------| |-----|
G|-6666-666-8-9999-9999-2222-2222-4444-4444-| |-----|
D|-6666-666-8-9999-9999-2222-2222-4444-4444-| |--2--|
A|-4444-444-6-7777-7777-0000-0000-2222-2222-| |--2--|
E|------------------------------------------| |--0--|



Solo

E|-------------------------------------12h14p12-12h16p12-14p12------|
B|-9------(9-9)--(14-14-14--12)-------------------------------------|
G|---9-----9-11---14-14-14--13--------------------------------------|
D|-----9------------------------14----------------------------------|
A|---------------------------------14-------------------------------|
E|------------------------------------------------------------------|


E|-12---------------------------------------------------------------|
B|----12-------------12---14-14-14-13-13-13-------------------------|
G|--------13--13-14------(14-14-14-14-14-14)------------------------|
D|------------------------------------------------------------------|
A|------------------------------------------------------------------|
E|------------------------------------------------------------------|


E|------------------------------------12h14p12-12h16p12-14p12-------|
B|-9-----(9-9)--(14-14-14--12)--------------------------------------|
G|---9----9-11---14-14-14--13---------------------------------------|
D|-----9-----------------------14-----------------------------------|
A|--------------------------------14--------------------------------|
E|------------------------------------------------------------------|


E|-12----------------------------12-14-16---------------------------|
B|----12-----------12--12-14-16-------------------------------------|
G|-------13--13-14--------------------------------------------------|
D|------------------------------------------------------------------|
A|------------------------------------------------------------------|
E|------------------------------------------------------------------|


Before last chorus

E|--------------|
B|--------------|
G|------------4-|
D|-2222-2222--4-|
A|-2222-2222--2-|
E|-0000-0000----|
Comments