Zebrahead - In My Room Chords & Tabs

 

In My Room Chords & Tabs

Zebrahead Chords & Tabs

Version: 1 Type: Tab 0 ratings
1 star 2 stars 3 stars 4 stars 5 stars
comments

In My Room Tab

   
Zebrahead, In My Room.
Tabbed by Justin, BBlink1822U@aol.com.
  
g------------------------4---
d-44-22--44-22--44-22-22-4-(8x)
a-44-22--44-22--44-22-22-2---
E-22-00--22-00--22-00-00-----

while Justin is singing u just let this ring g-4-  
                                             d-4-
                                             a-2-
                                             E---

then u play this palm muted
[ Tab from: http://www.guitartabs.cc/tabs/z/zebrahead/in_my_room_tab.html ]
pre chorus
g----------------44444444-
d-4444-2222------44444444-  (2x)
a-4444-2222-(3x)-22222222-
E-2222-0000---------------

chorus
e------------------------------------5~~--
b-----------------------------------------
g------4---------6---------4--------------
d-4----4----4----6----4----4----4---------
a-4----2----4----4----4----2----4(play this chord   
E-2---------2---------2---------2 8 times) 
 
:: Ultimate Guitar Archive :: 
http://www.ultimate-guitar.com 

Comments