Zebrahead - I Am Chords & Tabs

 

I Am Chords & Tabs

Zebrahead Chords & Tabs

Version: 1 Type: Tab 0 ratings
1 star 2 stars 3 stars 4 stars 5 stars
comments

I Am Tab

   
I am


GUITAR 1
intro and verse (repeat a buncha times :p hehe)
e------------------------------------------------------------|
B------------------------------------------------------------|
G------------------------------------------------------------|
D-----9-----------------------------9-----------7------------|
A---7---10-9------------9-------7------------9---------------|
E--------------10--5-10---5-10--------10-10------------------|

"yeah... hell yeah" pre chorus riff
e-------------------------------------------------------------|
B-------------------------------------------------------------|
G------------------9--9---------------------------------------|
D--2---2--2--5--5--9--9---------------------------------------|
A--2---2--2--5--5--7--7---------------------------------------|
E--0---0--0--3--3---------------------------------------------|

chorus riff
e-------------------------------------------------------------|
B-------------------------------------------------------------|
G--------------------7----------------------------------------|
D--2--2--2--4--4--4--7--7--7--7--9--7--7--7--9--7-------------|
A--2--2--2--4--4--4--5--7--7--7--9--7--7--7--9--7-------------|
E--0--0--0--2--2--2-----5--5--5--7--5--5--5--7--5-------------|


bridge riff (i assume it's a bridge.. it's not a really a solo so yeah) :)
e--------------------------------------------------------------|
B--------------------------------------------------------------|
G--------------------------------------------------------------|
D--2-2--2-2--2-2--2-2--2-2--2-2--2-2--2-2-2--2-----------------|
A--2-2--2-2--2-2--2-2--2-2--2-2--2-2--2-2-2--2-----------------|
E--0-0--0-0--0-0--0-0--0-0--0-0--0-0--0-0-0--0-----------------|

GUITAR 2
verse. mmyep. :)
e--------------------/19-------------------/19------------------|
B---12----12bend---------12---12bend----------------------------|
G---------------------------------------------------------------|
D---------------------------------------------------------------|
A---------------------------------------------------------------|
E---------------------------------------------------------------|
[ Tab from: http://www.guitartabs.cc/tabs/z/zebrahead/i_am_tab.html ]
"yeah... hell yeah" pre chorus riff
e---------------------------------------------------------------|
B---------------------------------------------------------------|
G------------------9--9-----------------------------------------|
D--2---2--2--5--5--9--9-----------------------------------------|
A--2---2--2--5--5--7--7-----------------------------------------|
E--0---0--0--3--3-----------------------------------------------|

chorus riff
e---------------------------------------------------------------|
B---------------------------------------------------------------|
G--------------------7------------------------------------------|
D--2--2--2--4--4--4--7--7--7--7--9--7--7--7--9--7---------------|
A--2--2--2--4--4--4--5--7--7--7--9--7--7--7--9--7---------------|
E--0--0--0--2--2--2-----5--5--5--7--5--5--5--7--5---------------|

after-chorus riff (1st time only)
e----------------------------------------------------------------|
B---15bend 2x----------------------------------------------------|
G---------------15-16--------------------------------------------|
D-----------------------14bend-\11-------------------------------|
A------------------------------------14--------------------------|
E----------------------------------------------------------------|

neato-sounding bridge-type thing :)
e--10--11--12--13--14--15---------------------------------------|
B--10--11--12--13--14--15---------------------------------------|
G---------------------------------------------------------------|
D---------------------------------------------------------------|
A---------------------------------------------------------------|
E---------------------------------------------------------------|

Prechorus "hip hip hop, make your body rock blah blah blah" (AFTER
BRIDGE-THING ONLY)
e---------------------------------------------------------------|
B---------------------------------------------------------------|
G--9----7--9--10-7--9-------------------------------------------|
D-------------------------10--9---------------------------------|
A--7----5--7--8--5--7-------------------------------------------|
E--------------------------8--7---------------------------------|
Comments