Zebrahead - Hello Tommorrow Chords & Tabs

 

Hello Tommorrow Chords & Tabs

Zebrahead Chords & Tabs

Version: 1 Type: Bass Tab 0 ratings
1 star 2 stars 3 stars 4 stars 5 stars
comments

Hello Tommorrow Bass Tab

   
Standard Tuning: E,A,D,G

Riff #1
G--------------I
D--------------I
A--------------I
E---44444444---I

Riff #2
G-----------------------------------------------I
D--------2222-----------------2222--------------I
A-------------2222-11-22-----------2222-11-22---I
E---4444-----------------4444-------------------I

Verse #1
G--------------------------------------------------------------I
D-----------------------1-2-4-2-1--------2-22------2222-4444---I
A-----6-4-----1-2-1-4-4-----------4-----------4-44-------------I
E---4-----7-0-----------------------4-44-----------------------I
[ Tab from: http://www.guitartabs.cc/tabs/z/zebrahead/hello_tommorrow_btab.html ]
Chorus
G--------------------6-4-3------------------3-4-6------------------6---6------------------------I
D--------2222-------------------2222-------------------2222-------------------2222--------------I
A-------------2222-1-----------------2222-1-----------------2222-4---4-------------2222-11-22---I
E---4444-------------------4444-------------------4444-------------------4444-------------------I

Verse #2
G---------------------------------------------------------I
D-----------------------1-2-4-2-1-------------------------I
A-----6-4-----1-2-1-4-4-----------4-----------------------I
E---4-----7-0-----------------------4---444444444444444---I

Riff #1      x1
Riff #2      x1
Verse #1     x2
Chorus       x1
Riff #2      x1
Verse #1     x2
Chorus       x1
Riff #2      x1
Pause 
Verse #2     x1
Chorus       x1
Riff #2      x1 At End let Ab ring.
Comments