Zebrahead - Hell That Is My Life Chords & Tabs

 

Hell That Is My Life Chords & Tabs

Zebrahead Chords & Tabs

Version: 1 Type: Tab 0 ratings
1 star 2 stars 3 stars 4 stars 5 stars
comments

Hell That Is My Life Tab

-------------------------------------------------------------------------------
			     THE HELL THAT IS MY LIFE - Zebrahead
-------------------------------------------------------------------------------
Tabbed by: Paul Fernandez
Email: black_lotuz33@hotmail.com

Tuning: Standard
Ive never ever seen this tabbed so i got a friend to do it for me and here it is if you 
the solo pleaseeee email me its not that hard ill get it sometime soon i guess
email comments or thx w/e
Main Riff
e|------------------------------------------------------------|
B|---10-13---10-13---10-13---10-13-----13-----13----13----13--|
G|-10------10------10------10--------12-----12----12----12----|
D|---------------------------------10-----10----10----10------|
A|------------------------------------------------------------|
E|------------------------------------------------------------|

e|----------------------------------------------------------|
B|--10-11--10-11--10-11--10-11--10-11--10-11--10-11--10-11--|
G|-8------8------8------8------8------8------8------8-------|
D|----------------------------------------------------------|
A|----------------------------------------------------------|
E|----------------------------------------------------------|

e|---------------------------------|
B|--10-11---10-11--10-11--10-11----|
G|-7------7-------7------7---------|
D|---------------------------------|
A|---------------------------------|
E|---------------------------------|X2

BackGround distortion thingy

e|---------------------------------------------------------------|
B|---------------------------------------------------------------|
G|-9-9---9-9-9---9-9-9-11-----------------------6---7-7---7-7-7--|
D|-9-9---9-9-9---9-9-9-11---9-9---9-9-9---9-9-9-6---7-7---7-7-7--|
A|-7-7---7-7-7---7-7-7-9----9-9---9-9-9---9-9-9-4---5-5---5-5-5--|
E|--------------------------7-7---7-7-7---7-7-7------------------|

e|-------------------------------------------------------------------------------------|
B|-------------------------------------------------------------------------------------|
G|-7-7-7-9-----------------------------------------------------------------------------|
D|-7-7-7-9---7-7-7---------------------------------------------------------------------|
A|-5-5-5-7---7-7-7---------------------------------------------------------------------|
E|-----------5-5-5---------------------------------------------------------------------|
Bass Part

Main Riff
e|------------------------------------------------------------|
B|---10-13---10-13---10-13---10-13-----13-----13----13----13--|
G|-10------10------10------10--------12-----12----12----12----|
D|---------------------------------10-----10----10----10------|
A|------------------------------------------------------------|
E|------------------------------------------------------------|

e|----------------------------------------------------------|
B|--10-11--10-11--10-11--10-11--10-11--10-11--10-11--10-11--|
G|-8------8------8------8------8------8------8------8-------|
D|----------------------------------------------------------|
A|----------------------------------------------------------|
E|----------------------------------------------------------|

e|---------------------------------|
B|--10-11---10-11--10-11--10-11----|
G|-7------7-------7------7---------|
D|---------------------------------|
A|---------------------------------|
E|---------------------------------|

BackGround distortion thingy
e|---------------------------------------------------------------|
B|---------------------------------------------------------------|
G|-9-9---9-9-9---9-9-9-11-----------------------6---7-7---7-7-7--|
D|-9-9---9-9-9---9-9-9-11---9-9---9-9-9---9-9-9-6---7-7---7-7-7--|
A|-7-7---7-7-7---7-7-7-9----9-9---9-9-9---9-9-9-4---5-5---5-5-5--|
E|--------------------------7-7---7-7-7---7-7-7------------------|

e|-------------------------------------------------------------------------------------|
B|-------------------------------------------------------------------------------------|
G|-7-7-7-9-----------------------------------------------------------------------------|
D|-7-7-7-9---7-7-7---------------------------------------------------------------------|
A|-5-5-5-7---7-7-7---------------------------------------------------------------------|
E|-----------5-5-5---------------------------------------------------------------------|

e|----------------------------------------------------------|
B|----------------------------------------------------------|
G|-4-4-4-4--------------------------------------------------|
D|-4-4-4-4--6-6-6-6---4-4-4-4---2-2-2-2-----------------2-4-|
A|-2-2-2-2--6-6-6-6---4-4-4-4---2-2-2-2-----------------2-4-|
E|----------4-4-4-4---2-2-2-2---0-0-0-0----X2 last part 0-2-|
[ Tab from: http://www.guitartabs.cc/tabs/z/zebrahead/hell_that_is_my_life_tab.html ]
Main Riff
e|------------------------------------------------------------|
B|---10-13---10-13---10-13---10-13-----13-----13----13----13--|
G|-10------10------10------10--------12-----12----12----12----|
D|---------------------------------10-----10----10----10------|
A|------------------------------------------------------------|
E|------------------------------------------------------------|

e|----------------------------------------------------------|
B|--10-11--10-11--10-11--10-11--10-11--10-11--10-11--10-11--|
G|-8------8------8------8------8------8------8------8-------|
D|----------------------------------------------------------|
A|----------------------------------------------------------|
E|----------------------------------------------------------|

e|---------------------------------|
B|--10-11---10-11--10-11--10-11----|
G|-7------7-------7------7---------|
D|---------------------------------|
A|---------------------------------|
E|---------------------------------|X3


BackGround distortion thingy
e|---------------------------------------------------------------|
B|---------------------------------------------------------------|
G|-9-9---9-9-9---9-9-9-11-----------------------6---7-7---7-7-7--|
D|-9-9---9-9-9---9-9-9-11---9-9---9-9-9---9-9-9-6---7-7---7-7-7--|
A|-7-7---7-7-7---7-7-7-9----9-9---9-9-9---9-9-9-4---5-5---5-5-5--|
E|--------------------------7-7---7-7-7---7-7-7------------------|

e|-------------------------------------------------------------------------------------|
B|-------------------------------------------------------------------------------------|
G|-7-7-7-9-----------------------------------------------------------------------------|
D|-7-7-7-9---7-7-7---------------------------------------------------------------------|
A|-5-5-5-7---7-7-7---------------------------------------------------------------------|
E|-----------5-5-5---------------------------------------------------------------------|

CHORUS
e|----------------------------------------------------------|
B|----------------------------------------------------------|
G|-4-4-4-4--------------------------------------------------|
D|-4-4-4-4--6-6-6-6---4-4-4-4---2-2-2-2-----------------2-4-|
A|-2-2-2-2--6-6-6-6---4-4-4-4---2-2-2-2-----------------2-4-|
E|----------4-4-4-4---2-2-2-2---0-0-0-0----X2 last part 0-2-|

SOLO (PLEASE SEND IT TO MY EMAIL)
e|---------------------------------------------------------------------------|
B|---------------------------------------------------------------------------|
G|---------------------------------------------------------------------------|
D|---------------------------------------------------------------------------|
A|---------------------------------------------------------------------------|
E|---------------------------------------------------------------------------|

Main Riff
e|------------------------------------------------------------|
B|---10-13---10-13---10-13---10-13-----13-----13----13----13--|
G|-10------10------10------10--------12-----12----12----12----|
D|---------------------------------10-----10----10----10------|
A|------------------------------------------------------------|
E|------------------------------------------------------------|

e|------------------------------------|
B|--10-11--10-11--10-11--10-11--10-11-|
G|-8------8------8------8------8------|
D|------------------------------------|
A|------------------------------------|
E|------------------------------------| pause

Main Riff
e|------------------------------------------------------------|
B|---10-13---10-13---10-13---10-13-----13-----13----13----13--|
G|-10------10------10------10--------12-----12----12----12----|
D|---------------------------------10-----10----10----10------|
A|------------------------------------------------------------|
E|------------------------------------------------------------|

e|----------------------------------------------------------|
B|--10-11--10-11--10-11--10-11--10-11--10-11--10-11--10-11--|
G|-8------8------8------8------8------8------8------8-------|
D|----------------------------------------------------------|
A|----------------------------------------------------------|
E|----------------------------------------------------------|

e|---------------------------------|
B|--10-11---10-11--10-11--10-11----|
G|-7------7-------7------7---------|
D|---------------------------------|
A|---------------------------------|
E|---------------------------------|

CHORUS
e|----------------------------------------------------------------------------|
B|----------------------------------------------------------------------------|
G|-4-4-4-4--------------------------------------------------------------------|
D|-4-4-4-4--6-6-6-6---4-4-4-4---2-2-2-2------------------2-4-6-9--------------|
A|-2-2-2-2--6-6-6-6---4-4-4-4---2-2-2-2------------------2-4-6-9--------------|
E|----------4-4-4-4---2-2-2-2---0-0-0-0----X5 last part -0-2-4-7--------------|


Well its all right there is a way to tap it which suppossedly sounds better
but i dont know it please send solo this is whole song order/times correct
Comments