Zebrahead - Falling Apart Chords & Tabs

 

Falling Apart Chords & Tabs

Zebrahead Chords & Tabs

Version: 1 Type: Tab

Falling Apart Tab

This is a really good song by Zebrahead and here's the tabs.That's how i play
the song with my band and it sounds perfectly like the real song



INTRO
e-------------------------------------------------|
B-------------------------------------------------|
G-------------------------------------------------|
D-------------------------------------------------|
A----44-55-44-77-44-55-44----44-55-44----44----44-| (x2)
E-22----------------------55----------55----44----|

("Everything's falling apart!")
e-----------------------------------------------|
B-----------------------------------------------|
G-------------7777-6666--------------9999-7777--|
D--44444444---7777-7777---77777777---9999-7777--|
A--44444444---5555-4444---77777777---7777-5555--|
E--22222222---------------55555555--------------|

VERSE
e---------------------------|
B---------------------------|
G-------77-66--------99-77--|
D--44---77-77---77---99-77--| (x3)
A--44---55-44---77---77-55--|
E--22-----------55----------|

e-------------------------|
B-------------------------|
G-------------------------|
D--4-------5-7-4----------|
A--4-------5-7-4----------|
E--2-0-2-0-3-5-2--x-x-x-x-|

PRE-CHORUS ("Manipulation's on my mind...")
e-----------------------------------------------|
B-----------------------------------------------|
G-------------7777-6666--------------9999-7777--|
D--44444444---7777-7777---77777777---9999-7777--|
A--44444444---5555-4444---77777777---7777-5555--|
E--22222222---------------55555555--------------|
[ Tab from: http://www.guitartabs.cc/tabs/z/zebrahead/falling_apart_tab.html ]
e---------------------------------------|
B---------------------------------------|
G-------------7777-6666--------------9--|
D--44444444---7777-7777---77777777---9--|
A--44444444---5555-4444---77777777---7--|
E--22222222---------------55555555------|

CHORUS ("Everything's falling apart...")
e------------------------|
B------------------------|
G------------------------|
D--44444444---7777-2222--|
A--44444444---7777-2222--| (x2)
E--22222222---5555-0000--|

e-----------------|
B-----------------|
G------77-----99--| 
D--44--77--77-99--| 
A--44--55--77-77--| (x2)
E--22------55-----|

AFTER CHORUS
(Guitar 1)
e-------------------------------------------------|
B-------------------------------------------------|
G-------------------------------------------------|
D-------------------------------------------------|
A----44-55-44-77-44-55-44----44-55-44----44----44-| (x2)
E-22----------------------55----------55----44----|

(Guitar 2)
e---------------------------|
B---------------------------|
G-------77-66--------99-77--|
D--44---77-77---77---99-77--| (x2)
A--44---55-44---77---77-55--|
E--22-----------55----------|

VERSE

PRE-CHORUS

CHORUS

BREAK (play either of these 2 lines at various times)
e------------------------------|
B--14141414--------------------|
G-----------14-16-16b18r16-----|
D--------------------------16--|
A------------------------------|
E------------------------------|

e------------------------------|
B--14141414--------------------|
G-----------14-16-16b18-14-----|
D------------------------------|
A------------------------------|
E------------------------------|

End the break with
e-----------|
B-----------|
G--7--6-----|
D--7--7--7--|
A--5--4--7--|
E--------5--|

CHORUS (x2)

END ON
e----|
B----|
G----|
D--4-|
A--4-|
E--2-|