Zebrahead - Fall Apart Chords & Tabs

 

Fall Apart Chords & Tabs

Zebrahead Chords & Tabs

Version: 1 Type: Bass Tab

Fall Apart Bass Tab

   
intro
E-2----222222--------555555---------|
A------------555-444--------777-555-|
D-----------------------------------|
G-----------------------------------|

verse
E-22--------55--------|
A-----55-44-----77-55-|
D---------------------|
G---------------------|
[ Tab from: http://www.guitartabs.cc/tabs/z/zebrahead/fall_apart_btab.html ]
pre chorus
E--222222--------555555----------|
A---------555-444--------777-555-|
D--------------------------------|
G--------------------------------|

chorus
E-22222222222-555555-000000-|
A---------------------------|
D---------------------------|
G---------------------------|

pre verse
E--22xxx----------55xxx------------|
A--------55-xx-44-------77-xx-55---|
D----------------------------------|
G----------------------------------|

Bridge
E-2------5------0-|
A-----------------|
D-----------------|
G-----------------|

reli kewl song have fun :D