Zebrahead - Everythings Falling Apart Chords & Tabs

 

Everythings Falling Apart Chords & Tabs

Zebrahead Chords & Tabs

Version: 1 Type: Tab 0 ratings
1 star 2 stars 3 stars 4 stars 5 stars
comments

Everythings Falling Apart Tab

 Zebrahead
(Everything's) Falling Apart From MFZB
Tabbed By Donkey Fly


This is my version i tabbed about 3 weeks after the song came out , i never got round
to posting it on UG...But here it is now 
LISTEN TO THE SONG FIRST!


Intro
e|-------------------------------------------------||
B|-------------------------------------------------||
G|-------------------------------------------------||
D|-------------------------------------------------||
A|----44-55-44-77-44-55-44-00-44-55-44-00-44----44-|| TWICE
E|-22----------------------------------------44----||

       
e|-----------------------------------------------||
B|-----------------------------------------------||
G|-------------7777-6666--------------9999-7777--||
D|--44444444---7777-7777---77777777---9999-7777--||
A|--44444444---5555-4444---77777777---7777-5555--||
E|--22222222---------------55555555--------------||

Verse
e|-------------------------||
B|-------------------------||
G|------77-66--------99-77-||
D|-44---77-77---77---99-77-|| (x3)
A|-44---55-44---77---77-55-||
E|-22-----------55---------||

e|------------------------||
B|------------------------||
G|------------------------||
D|-4-------5-7-4--x-x-x-x-||
A|-4-------5-7-4--x-x-x-x-||
E|-2-0-2-0-3-5-2--x-x-x-x-||

Pre-Chorus
e|----------------------------------------------||
B|----------------------------------------------||
G|------------7777-6666--------------9999-7777--||
D|-44444444---7777-7777---77777777---9999-7777--||
A|-44444444---5555-4444---77777777---7777-5555--||
E|-22222222---------------55555555--------------||
[ Tab from: http://www.guitartabs.cc/tabs/z/zebrahead/everythings_falling_apart_tab.html ]
e|--------------------------------------||
B|--------------------------------------||
G|------------7777-6666--------------9--||
D|-44444444---7777-7777---77777777---9--||
A|-44444444---5555-4444---77777777---7--||
E|-22222222---------------55555555------||

Chorus - I think the intro is played behind this but im totally sure
e|----------------------||
B|----------------------||
G|----------------------||
D|-44444444---7777-2222-||
A|-44444444---7777-2222-|| (x2)
E|-22222222---5555-0000-||

e|----------------||
B|----------------||
G|-----77-----99--|| 
D|-44--77--77-99--||
A|-44--55--77-77--||(x2)
E|-22------55-----||

Bridge - The Intro Is Played With Another Gguitar Playing This Behind it

e|--------------------------||
B|--------------------------||
G|------77-66--------99-77--||
D|-44---77-77---77---99-77--||(x2)
A|-44---55-44---77---77-55--||
E|-22-----------55----------||

Verse

Pre-Chorus

Chorus

Interlude - These Are Played At Different Times Throughout The Interlude
(This is where you need to listen to the song) 
e|-----------------------------||
B|-----------------------------||
G|-18181818-14-16-16b18r16-11--|| 
D|-----------------------------||
A|-----------------------------||
E|-----------------------------||

e------------------------------||
B------------------------------||
G--18181818-14-16-16b18-14-----||
D------------------------------||
A------------------------------||
E------------------------------||


e-----------|
B-----------|
G--7--6-----|
D--7--7--7--|
A--5--4--7--|
E--------5--|

Chorus X2

End On F#5
Comments