Zebrahead - E Generation Chords & Tabs

 

E Generation Chords & Tabs

Zebrahead Chords & Tabs

Version: 1 Type: Bass Tab 0 ratings
1 star 2 stars 3 stars 4 stars 5 stars
comments

E Generation Bass Tab

   
rest two bars

Intro 
  1 & 2 & 3 & 4 &   1 & 2 & 3 & 4 &
g-----------------|-----------------|
d-----------------|-----------------|
a-----------------|-4-4-4-4-4-4-4-4-|
e-2-2-2-2-2-2-2-2-|-----------------|
  1 & 2 & 3 & 4 &   1 & 2 & 3 & 4 & 
g-----------------|-----------------|
d-----------------|-----------------|
a-----------------|-----------------|
e-0-0-0-0-0-0-0-0-|-5-5-5-4-4-4-0-0-|

play the intro twice thru

verse (all four bars count as one time thru the chorus)


  1 & 2 & 3 &(4)&
g-----------------|
d-----------------|    repeat three times then play this
a-----4-0-2-2-----|
e-2-2-----------0-|
  1 & 2 & 3 & 4 &
g-----------------|
d-----------------|
a-----------------|
e-5-5-5-4-4-4-4-4-|

play verse three times
[ Tab from: http://www.guitartabs.cc/tabs/z/zebrahead/e_generation_btab.html ]
pre-chorus
  1 & (2)(3)(4)
g-----------------|
d-----------------|
a-----------------|
e-2-2-------------| 

play the pre chorus 4 times

chorus (there are two sections to it, you'll understand why)
two times thru both parts counts as one time thru the chorus

part one

  1 &(2)& 3 & 4
g-----------------|
d-----------------|
a-----------------|
e-2-2---2-2-0-0---|  play two times

part two
  1 & 2 &(3)& 4
g-----------------|
d-------2---2-2---|
a-0-0-0-----------| play twice
e-----------------|

go thru the chorus twice

once thru the intro riff

then back into the verse.  play it three times

then play the pre-chorus 4 times

then the chorus twice

now play part one of the chorus 8 times during the solo

then play the pre chorus 4 times

then play part two of the chorus twice

then part one twice

then part two twice

then the pre chorus twice
Comments