Zebrahead - Big Shot Chords & Tabs

 

Big Shot Chords & Tabs

Zebrahead Chords & Tabs

Version: 1 Type: Bass Tab 0 ratings
1 star 2 stars 3 stars 4 stars 5 stars
comments

Big Shot Bass Tab

   
verse (riff a)

g------------------|
d------------------|
a-------3----------|  play this riff 3 times then play riff b
e-3--5------3-5----|

riff b

g------------------|
d--------7---5-----|
a--------------7-5-|
e-3--5-------------|

Pre chorus (riff c)

g------------------|
d----------676-232-|
a---------5---3----|
e-5--3-3-3---------|

Chorus (riff d)

"so you're a bigshot now and"

g-----------------|-----------------|
d-----------------|-2-2-2-2-2-2-2-2-|
a-2-2-2-2-2-2-2-2-|-----------------|
e-----------------|-----------------|

g-----------------|-----------------|
d-----------------|-2-2-2-2---------|
a-2-2-2-2-2-2-2-2-|-----------0-0---|
e-----------------|-----------------|

other part (?) riff e

it's very soft but there is a part

g-----4-----------|
d-----------0/2---|
a-2---------------|
e-----------------|

ending
[ Tab from: http://www.guitartabs.cc/tabs/z/zebrahead/big_shot_btab.html ]
"So you're a bigshot now and" in a muffled voice

g-----------------|-----------------|
d-----------------|-2-2-2-2-2-2-2-2-|
a-2-2-------------|-----------------|
e-----------------|-----------------|

g-----------------|-----------------|
d-----------------|-2-2-2-2---0-0---|
a-2-2-2-2-2-2-2-2-|-----------------|
e-----------------|-----------------|

end part two

"your time is runnin out.."

g-----------------|-----------------|
d-----------------|-----------------|
a-2-2-2-2-2-2-2-2-|-2-2-2-2---0-0---|
e-----------------|-----------------|

end part three

g-----------------|
d-----------------|
a-2-2-2-2-2-0-0---|
e-----------------|

order
rest four bars
verse x 2
pre chorus x 4
chorus x 2
verse x 2
pre chorus x 4
chorus x 2
rest 3 bars
riff b x 1
cerse x 2
riff c x 4
riff e x 4
ending once
chorus x 1
end part two x 2
end part three x 3
end on a string 2nd fret
Comments