Zebrahead - All I Need Chords & Tabs

 

All I Need Chords & Tabs

Zebrahead Chords & Tabs

Version: 1 Type: Bass Tab 0 ratings
1 star 2 stars 3 stars 4 stars 5 stars
comments

All I Need Bass Tab

Riff 1
G|---------------------------------------------------------------------------|
D|---------------------------------------------------------------------------|
A|---------------------------------------------------------------------------|
E|-6-6-6-6--7-4--------------------------------------------------------------|
Riff 2
G|---------------------------------------------------------------------------|
D|---------------------------------------------------------------------------|
A|-------------------6-------------------------------------------------------|
E|--6--7--4--6--7--4---------------------------------------------------------|
Riff 3
G|---------------------------------------------------------------------------|
D|---------------------------------------------------------------------------|
A|---------------------------------------------------------------------------|
E|--66-5-4-------------------------------------------------------------------|
Riff 4
G|---------------------------------------------------------------------------|
D|---------------------------------------------------------------------------|
A|------3---5----------------------------------------------------------------|
E|--6---------0000-1---------------------------------------------------------|
riff 5
G|---------------------------------------------------------------------------|
D|---------------------------------------------------------------------------|
A|---------------------------------------------------------------------------|
E|--0000-1-------------------------------------------------------------------|

This one is kinda long:
Riff 1 x8
Riff 2 x4
Riff 3 x1
Riff 1 x4
Riff 4 x1
Riff 1 x4
Riff 2 x4
Riff 3 x1
Riff 1 x4
Riff 4 x1
Riff 3 x4
Riff 5 x1
Riff 3 x3
Riff 5 x4
Riff 2 x6
Riff 3 x1
Riff 1 x4
Riff 4 x2
Riff 1 x3
Riff 3 x1
[ Tab from: http://www.guitartabs.cc/tabs/z/zebrahead/all_i_need_btab.html ]
Comments