Zebra - The La La Song Chords & Tabs

 

The La La Song Chords & Tabs

Zebra Chords & Tabs

Version: 1 Type: Chords 0 ratings
1 star 2 stars 3 stars 4 stars 5 stars
comments

The La La Song Chords

   
#----------------------------------PLEASE NOTE--------------------------------#
#This file is the author's own work and represents their interpretation of the#
#song. You may only use this file for private study, scholarship, or research.#
#-----------------------------------------------------------------------------#
#------- File created with Instab - http://www.pconline.com/instab.html ------#
#-----------------------------------------------------------------------------#

Artist/Author: Zebra / Randy Jackson
Title: The La La Song
Album: Zebra
Transcribed by: Philip D'Antoni, July 31, 2001
Email: pdantoni@earthlink.net

Includes ending not on studio release.


Introduction:

    Am7 Am7 Am7 ?   C6  C/D C/D D   D Dsus4 D Dadd9 D    Fmaj7      Cmaj7
-|--3---0---3---7---5---3---3---5---2---3---2---0---2--|-0----3p0-|-0---3p0-|-
-|*-1---1---1---5---5---5---5---7---3---3---3---3---3-*|-1--------|-0-------|-
-|--0---0---0---5---5---5---5---7---2---2---2---2---2--|-2--------|-0-------|-
-|--2---2---2---5---5---0---0---0---0---0---0---0---0--|-3--------|-2-------|-
-|*-0---0---0-----------------------------------------*|----------|-3-------|-
-|-----------------------------------------------------|----------|---------|-
    La  La  La  La  La  La  La  La  La                                        


    Em  /   /   /
    Ahh.............


    Am          G   D
-|--0---0-------3-|-2---2---2--------|-
-|*-1---1-------0-|-3---3---3-------*|-
-|--2---2-------0-|-2---2---2--------|-
-|--2---2-------0-|-0---0---0--------|-
-|*-0---0--2-3--2-|-------------3-2-*|-
-|--------------3-|------------------|-

                                                                              
Verse 1:

      Am           F          C        G   E
    I won't be the fool in my life, in my life.
      Am                F          C        G   E
    I won't change the rules in my life, in my life.

       Dm       Em         F            G
    In all your silence, I knew it all along.
        Dm              Em                    F                G
    You haven't got the sense to know, What's right and what's wrong.

          Am             Am7/G
    And I really haven't got the time,
       F                  G                Am7 Em7 Am7 D (see below)
    To tell you about the things that are absurd.
Chorus:

    D               Am7 Em7 Am7  D
-|--3-------------|--0---0---0---2---|-
-|*-2-------------|--1---8---1---3--*|-
-|--3-------------|--0---0---0---2---|-
-|--0-------------|--2---9---2---0---|-
-|*---------------|--0---0---0------*|-
-|----------------|------------------|-
          Don't fear tomorrow                                                          


Repeat Introduction:


Verse 2:

      Am             F            C         G    E
    I won't play the fool to your knife, to your knife.
        Am               F          C         G  E
    You can't change the tune in my sight, in my life.

         Dm       Em         F            G
    With all your silence, I knew it all along,
        Dm              Em                 F                 G
    You haven't got the nerve to write the words within this song.
[ Tab from: http://www.guitartabs.cc/tabs/z/zebra/the_la_la_song_crd.html ]
        Am                 Am7/G           F               G
    And you really haven't got the time to tell me why you really are
        Am                 Am7/G           F               G
    And you really haven't got the time to tell me why you really are
    Am                 Am7/G           F               G           Am7 Em7 Am7 D
    You really haven't got the time to tell me why you really are afraid!


Repeat Chorus:


Repeat Introduction:


Ending:

-|-----------------|-------------------|-----------------|-------------------|-
-|*----------------|------------------*|*----------------|------------------*|-
-|-----------------|-------------------|-----------------|-------------------|-
-|-----------------|-------------------|-----------------|-------------------|-
-|*7-5---7-7-5---5-|-7-5---7-7-5---5-7*|*8-6---8-8-6---6-|-8-6---8-8-6---6-8*|-
-|-----7-------7---|-----7-------7-----|-----8-------8---|-----8-------8-----|-


Repeat the 4 Bars above:





   E                  E7                 F                  Fmaj7(b5)
-|-0----------------|-0----------------|-1----------------|-0---------------|-
-|-0----------------|-0----------------|-1----------------|-0---------------|-
-|-1----------------|-1----------------|-2----------------|-2---------------|-
-|-2----------------|-0----------------|-3----------------|-3---------------|-
-|-2----------------|-2----------------|-3----------------|-3---------------|-
-|-0----------------|-0----------------|-1----------------|-1---------------|-
   Leaves on the      trees,             her eye            on the storm      


   G                  A
-|-3----------------|-0--------------------|-
-|-3----------------|-2--------------------|-
-|-0----------------|-2--------------------|-
-|-0----------------|-2--------------------|-
-|-2----------------|-0--------------------|-
-|-3----------------|----------------------|-
   no but a mountain, for which to be born.


   E                  E7                 F                  Fmaj7(b5)
-|-0----------------|-0----------------|-1----------------|-0---------------|-
-|-0----------------|-0----------------|-1----------------|-0---------------|-
-|-1----------------|-1----------------|-2----------------|-2---------------|-
-|-2----------------|-0----------------|-3----------------|-3---------------|-
-|-2----------------|-2----------------|-3----------------|-3---------------|-
-|-0----------------|-0----------------|-1----------------|-1---------------|-
   Her eyes           like an eagle,     rainlets in the    air               


   G                  A                      C   B          C   B   E   Eb
-|-3----------------|-0----------------|-----8---7--------|-8---7---7---6---|-
-|-3----------------|-2----------------|-----8---7--------|-8---7---9---8---|-
-|-0----------------|-2----------------|-----9---8--------|-9---8---9---8---|-
-|-0----------------|-2----------------|-----10--9--------|-10--9---9---8---|-
-|-2----------------|-0----------------|-----10--9--------|-10--9---7---6---|-
-|-3----------------|------------------|-----8---7--------|-8---7-----------|-
   no but a mountain, all else is clear! Hey!!!                               


   C   B   E   Eb     G   Gb             C   B   Db  C      D    C   Eb   B
-|-8---7---7---6----|-10--9------------|-8---7---9---8----|-10---8---11---7-|-
-|-8---7---9---8----|-12--11-----------|-8---7---9---8----|-10---8---11---7-|-
-|-9---8---9---8----|-12--11-----------|-9---8---10--9----|-11---9---12---8-|-
-|-10--9---9---8----|-12--11-----------|-10--9---11--10---|-12---10--13---9-|-
-|-10--9---7---6----|-10--9------------|-10--9---11--10---|-12---10--13---9-|-
-|-8---7------------|------------------|-8---7---9---8----|-10---8---11---7-|-


    E       F  G  A    E                                                      
-|--0-------1--3--5--|-0---------------|-
-|*-0-------1--3--5-*|-0---------------|-
-|--1-------2--4--6--|-1---------------|-
-|--2-------3--5--7--|-2---------------|-
-|*-2-------3--5--7-*|-2---------------|-
-|--0-------1--3--5--|-0---------------|-
Comments