Zebra - Tell Me What You Want Chords & Tabs

 

Tell Me What You Want Chords & Tabs

Zebra Chords & Tabs

Version: 1 Type: Chords 0 ratings
1 star 2 stars 3 stars 4 stars 5 stars
comments

Tell Me What You Want Chords

   
#----------------------------------PLEASE NOTE--------------------------------#
#This file is the author's own work and represents their interpretation of the#
#song. You may only use this file for private study, scholarship, or research.#
#-----------------------------------------------------------------------------#
#------- File created with Instab - http://www.pconline.com/instab.html ------#
#-----------------------------------------------------------------------------#

Artist/Author: Zebra / Randy Jackson
Title: Tell Me What You Want
Album: Zebra
Transcribed by: Philip D'Antoni, July 14, 2001
Email: pdantoni@earthlink.net


Verse 1:

       G    Am              Am   G              Am   F
-|-----3----0---------------5----3--------------5----1----------------------|-
-|-----3----1---------------5----3--------------5----1----------------------|-
-|-----0----2---------------5----4--------------5----2----------------------|-
-|-----0----2---------------7----5--------------7----3----------------------|-
-|-----2----0---------------------------------------------------------------|-
-|-----3--------------------------------------------------------------------|-
  I've been wasting my time oh oh oh oh oh


       G    Am              Am   G              Am   D
-|-----3----0---------------5----3--------------5----10---------------------|-
-|-----3----1---------------5----3--------------5----10---------------------|-
-|-----0----2---------------5----4--------------5----11---------------------|-
-|-----0----2---------------7----5--------------7----0----------------------|-
-|-----2----0---------------------------------------------------------------|-
-|-----3--------------------------------------------------------------------|-
     I am losing my mind            My head's on the floor, for evermore.


       G    Am              Am   G              Am   F
     I have given you all,  All all       all that I had.
       G    Am              Am   G              Am   D
   But with the slam of the door, you've driven me mad. Now I'm sad.


Chorus:
[ Tab from: http://www.guitartabs.cc/tabs/z/zebra/tell_me_what_you_want_crd.html ]
               G   Am                Am7/G D7/F#        F
-|-------------3----0------------------0----2-----------1-------------------|-
-|-------------3----1------------------1----1-----------1-------------------|-
-|-------------0----2------------------0----2-----------2-------------------|-
-|-------------0----2------------------2----0-----------3-------------------|-
-|-------------2----0------------------0----------------3-------------------|-
-|-------------3-----------------------3----2-----------1-------------------|-
  Tell me what you want, tell me what you want

               G   Am                Am7/G D7/F#        F
  Tell me what you want, tell me what you want


(after Verse 2 skip 4th to solo)


Verse 2:

You have taken it all, All of my love,
Unrelenting you told, You told me a lie, So I could cry.
There aren't words for it all, All that I feel.
With the palm of your hand, You crushed me for real, Now what's the deal.


Repeat Chorus:


Solo:
                   D   G   D
  Tell me what you want

Am      Am7/G   FGFGF FGFGF
Am      G       D       D
Am      G       C       D
Am      G       C       D


Bridge:
    F                                   D   Dsus4 D   Dadd9 D   Dsus4 D
I'm wishing to God you're gonna say you miss me
    F                                              D   Dsus4 D Dadd9 D Dsus4 D
I'm crossing my fingers that you say your're gonna kiss me
    F                                   D   Dsus4 D   Dadd9 D   Dsus4 D
I'm wishing to God you're gonna say you miss me
     F                             G
I've got my fingers crossed you'll kiss me one more time


Verse 3:

                     G    Am
So I can say I ain't been wasting my time, oh oh oh oh oh
I am losing my mind, my head's on the floor for evermore.
I have given you all, All that I had.
But with the slam of the door, You've driven me mad. Now I'm sad.


Repeat Chorus and fade


I need you so bad.
                                             D   G   D (end on downstrum)
You got to tell me, tell me what you want...
Comments