Zebra - Take Your Fingers From My Hair Chords & Tabs

 

Take Your Fingers From My Hair Chords & Tabs

Zebra Chords & Tabs

Version: 1 Type: Chords 0 ratings
1 star 2 stars 3 stars 4 stars 5 stars
comments

Take Your Fingers From My Hair Chords

   
#----------------------------------PLEASE NOTE--------------------------------#
#This file is the author's own work and represents their interpretation of the#
#song. You may only use this file for private study, scholarship, or research.#
#-----------------------------------------------------------------------------#
#------- File created with Instab - http://www.pconline.com/instab.html ------#
#-----------------------------------------------------------------------------#

Artist/Author: Zebra / Randy Jackson
Title: Take Your Fingers From My Hair
Album: Zebra
Transcribed by: Philip D'Antoni, July 18, 2001
Email: pdantoni@earthlink.net

    Em                Dsus  D               A             Asus
-|------------0---2---3--p--2-----------------------------------------------|-
-|*-------------------3---------3-----------2-----2---0---3---2---0h2p0----*|-
-|--------0-----------2-------------2-------2---------------------------2---|-
-|------2-------------0-----------------0---2-----------------------------2-|-
-|*---2-------------------------------------0---0---0---0---0---0----------*|-
-|--0-----------------------------------------------------------------------|-
            Take Your Fingers     From   My Hair  
            They have gotten       us     nowhere                                    

   G               F#m             F               Em         D  G
-|-----------3---------------2---------------1-------------0--2--2----------|-
-|---------0---0-----------2---2-----------1---1-----------0--3--0----------|-
-|-------0-------0-------2-------2-------2-------2-------0-0--2--0----------|-
-|-----0---------------4---------------3---------------2------0--0----------|-
-|---2---------------4---------------3---------------2-----------2----------|-
-|-3---------------2---------------1---------------0-------------3----------|-
         We can't  last                  another   second         For we are  
[ Tab from: http://www.guitartabs.cc/tabs/z/zebra/take_your_fingers_from_my_hair_crd.html ]
   D          D    D      Em          F#m           Gmaj7       F#m
-|-2----------5----5----|-------0-------------0-----------2-----------0-----|-
-|-3----------7----7----|*----0---0---------2---2-------3---3-------2---2--*|-
-|-2----------7----7----|---0-------0-----2-------2---0-------0---2-------2-|-
-|-0----------0----0----|-2-----------2h4----------4/5----------4-----------|-
-|----------------------|*-------------------------------------------------*|-
-|----------------------|---------------------------------------------------|-
   two,     too lost for open doors


Verse 2:

Em            Dsus D            A       Asus
    Take your memories and your ways

Em            Dsus D            A       Asus
    Let me    see  a brighter   day

G             F#m           F                 Em
    Greener   fields           aren't hard to hope for

D   G             D               A riff
        It's just hard   to go on living here without you


A riff:        repeat 2 times

-|---------------------------------|----------------------------------------|-
-|*-2-------2---2---2-------------*|----------5----7----8----10----12----14-|-
-|--2-------2---2---2--------------|----------------------------------------|-
-|--2---4---2---2---2--4/5--2---4--|-2---4----5----7----9----11----12----14-|-
-|*-0-------0---0---0-------------*|----------------------------------------|-
-|---------------------------------|----------------------------------------|-


Chorus:

A                F#  G   Em        (Note: the F# and G are bass notes only.)
    Somewhere    I  have dreamed

     C               G           D          A riff
That you     haven't got     the time to be with me

A                F#  G   Em
    Somewhere though it seems

     C               G           D          A riff
That you   have been making      love   without me

D           F           C                     G       D       A riff
Starshine,  moonshine,  you're the light that shines upon me  baby

D           F           C                     G       D       A riff
I know,     you'll go,  find yourself       another   lover   lady

Em (one down strum and hold)


Verse 3:

Em         Dsus D           A       Asus
    Let me tell you how I   feel

Em         Dsus D           A       Asus
    Loving others isn't     real

G           F#m         F               Em
    You are blind,         Too blind to notice

D   G              D               A riff
        That their love is not the love we share together


Repeat Chorus


Em / / / F# G / / / D / / / C / D /
Em / / / F# G / / / D / / / C / D /
Em

Solo, if you will......
Comments