Zebra - One More Chance Chords & Tabs

 

One More Chance Chords & Tabs

Zebra Chords & Tabs

Version: 1 Type: Chords 0 ratings
1 star 2 stars 3 stars 4 stars 5 stars
comments

One More Chance Chords

   
#----------------------------------PLEASE NOTE--------------------------------#
#This file is the author's own work and represents their interpretation of the#
#song. You may only use this file for private study, scholarship, or research.#
#-----------------------------------------------------------------------------#
#------ File created with Instab - http://www.pconline.com/instab.html -------#
#-----------------------------------------------------------------------------#

Artist/Author: Zebra / Randy Jackson
Title: One More Chance
Album: Zebra
Transcribed by: Philip D'Antoni, July 25, 2001
Email: pdantoni@earthlink.net


Verse 1:

   E                 E?                D                 A
-|---------0-------|---------0-------|---------0-------|---------0-------|----
-|-------0---0-----|-------0---0-----|-------0---0-----|-------0---0-----|----
-|-----9-------9---|-----8-------8---|-----7-------7---|-----6-------6---|----
-|---9-----------9-|---9-----------9-|---7-----------7-|---7-----------7-|----
-|-7---------------|-7---------------|-5---------------|-0---------------|----
-|-----------------|-----------------|-----------------|-----------------|----
          If I could only relive       yesterday


   E                 E?                F#m7              D       Dsus4
-|---------0-------|---------0-------|-2---------------|-2---2---3p2-2---|----
-|-------0---0-----|-------0---0-----|-2---------------|-3---3---3---3---|----
-|-----9-------9---|-----8-------8---|-2---------------|-2---2---2---2---|----
-|---9-----------9-|---9-----------9-|-2---------------|-0---0---0---0---|----
-|-7---------------|-7---------------|-4---------------|-----------------|----
-|-----------------|-----------------|-2---------------|-----------------|----
         I think I'd try   to do it    right


   E                 E?                D                 A
-|---------0-------|---------0-------|---------0-------|---------0-------|----
-|-------0---0-----|-------0---0-----|-------0---0-----|-------0---0-----|----
-|-----9-------9---|-----8-------8---|-----7-------7---|-----6-------6---|----
-|---9-----------9-|---9-----------9-|---7-----------7-|---7-----------7-|----
-|-7---------------|-7---------------|-5---------------|-0---------------|----
-|-----------------|-----------------|-----------------|-----------------|----
           If I had one more chance to be with you


   E                 E?                D                 D
-|---------0-------|---------0-------|---------0-------|-0---0---0---0---|----
-|-------0---0-----|-------0---0-----|-------0---0-----|-0---0---0---0---|----
-|-----9-------9---|-----8-------8---|-----7-------7---|-7---7---7---7---|----
-|---9-----------9-|---9-----------9-|---7-----------7-|-7---7---7---7---|----
-|-7---------------|-7---------------|-5---------------|-5---5---5---5---|----
-|-----------------|-----------------|-----------------|-----------------|----
                 I think it might just save my life



Chorus:
[ Tab from: http://www.guitartabs.cc/tabs/z/zebra/one_more_chance_crd.html ]
   E A                   G    E   G   A   Am    A?  A   C#  B     F#
-|-0-0-------------------9--|-9---9---0---0---|-0---0-----------|-2---------|-
-|-0-2-------------------10-|-9---10--5---5---|-5---2-----------|-2---------|-
-|-1-2-------------------9--|-9---9---6---6---|-6---2-----------|-3---------|-
-|-2-2-------------------11-|-9---11--7---6---|-4---2-----------|-4---------|-
-|-2-0----------------------|---------0---0---|-0---0---4---2---|-4---------|-
-|-0------------------------|-----------------|-----------------|-2---------|-
   Just one more chance               And I    will be your love forever


     F#               F#
     One more chance, one more chance


Repeat Chorus

Bridge:

     E   D                   B
     I'm caught in the same old world
           D                 B
     And I just can't get my head unwhirled
             D           E                A
     And I'm looking for any old place to hide


   A                 B/A               C/A               D/A
-|-0---------------|-0---------------|-0---------------|-0---------------|----
-|-2---------------|-4---------------|-5---------------|-7---------------|----
-|-2---------------|-4---------------|-5---------------|-7---------------|----
-|-2---------------|-4---------------|-5---------------|-7---------------|----
-|-0---------------|-0---------------|-0---------------|-0---------------|----
-|-----------------|-----------------|-----------------|-----------------|----
   hide              Ahh...            Ahh...            Ahh...


   A/A               B/A               C/A               D/A
-|-0---------------|-0---------------|-0---------------|-0---------------|----
-|-5---------------|-7---------------|-8---------------|-10--------------|----
-|-6---------------|-8---------------|-9---------------|-11--------------|----
-|-7---------------|-9---------------|-10--------------|-12--------------|----
-|-0---------------|-0---------------|-0---------------|-0---------------|----
-|-----------------|-----------------|-----------------|-----------------|----
   Ahh...            Ahh...            Ahh...            Ahh...


Verse 2:

I took a journey down through paradise
I think I'd like to make it twice
I took another journey yesterday
I hope it just won't ruin my life


Repeat Chorus twice

   E D D Dsus4 D   Dadd9 D Dsus4 D     F                 G
-|-0-2-2---3---2---|-0---2---3---2---|-1---------------|-3---------------|----
-|-0-3-3---3---3---|-3---3---3---3---|-1---------------|-3---------------|----
-|-1-2-2---2---2---|-2---2---2---2---|-2---------------|-0---------------|----
-|-2-0-0---0---0---|-0---0---0---0---|-3---------------|-0---------------|----
-|-2---------------|-----------------|-3---------------|-2---------------|----
-|-0---------------|-----------------|-1---------------|-3---------------|----


Repeat Chorus


   E D D Dsus4 D   Dadd9 D Dsus4 D     F                 G


Repeat 8 bars of Ahh... (above)


Ending:

   A                 B/A               C/A               D/A
-|-0---------------|-0---------------|-0---------------|-0---------------|----
-|-2---------------|-4---------------|-5---------------|-7---------------|----
-|-2---------------|-4---------------|-5---------------|-7---------------|----
-|-2---------------|-4---------------|-5---------------|-7---------------|----
-|-0---------------|-0---------------|-0---------------|-0---------------|----
-|-----------------|-----------------|-----------------|-----------------|----
   Ahh...            Ahh...            Ahh...            Ahh



Segue into: Take Your Fingers From My Hair
Comments