Zebra - Don't Walk Away Chords & Tabs

 

Don't Walk Away Chords & Tabs

Zebra Chords & Tabs

Version: 1 Type: Chords 0 ratings
1 star 2 stars 3 stars 4 stars 5 stars
comments

Don't Walk Away Chords

   
#----------------------------------PLEASE NOTE--------------------------------#
#This file is the author's own work and represents their interpretation of the#
#song. You may only use this file for private study, scholarship, or research.#
#-----------------------------------------------------------------------------#
#------ File created with Instab - http://www.pconline.com/instab.html -------#
#-----------------------------------------------------------------------------#

Artist/Author: Zebra / Randy Jackson
Title: Don't Walk Away
Album: Zebra
Transcribed by: Philip D'Antoni, August 19, 2001
Email: pdantoni@earthlink.net

Chord Shapes:
        D         F#m/D         Am          C           G           D
-|------3-----------2-----------0-----------0-----------3-----------2-------|-
-|------2-----------2-----------1-----------1-----------0-----------3-------|-
-|------3-----------2-----------2-----------0-----------0-----------2-------|-
-|------0-----------0-----------2-----------2-----------0-----------0-------|-
-|------------------------------0-----------3-----------2-------------------|-
-|------------------------------------------------------3-------------------|-

Introduction:

D riff:     (Repeat 4 times)
      D      D                           D      D
-|----3------3---------------------------3------3---------------------------|-
-|*---2------2---------------------------2------2--------------------------*|-
-|----3------3---------------------------3------3---------------------------|-
-|----0------0---------------------------0------0---------------------------|-
-|*-----------------3------2---------------------------0h2h3--2------------*|-
-|--------------------------------3----------------------------------3------|-

Verse 1:

        D               F#m/D           Am
I don't know        why you        have lied about your     vanity
C                G                 D riff
    Always never fighting till the end
      D               F#m/D           Am
And I can't      stop you        from trying to save your sanity
C                  G              D riff
    Heaven will protect us in the end


Chorus:
[ Tab from: http://www.guitartabs.cc/tabs/z/zebra/dont_walk_away_crd.html ]
   Bm      A         G       D
We get one chance to sip the wine
    Bm         A       G        D
And life don't come on borrowed time
    Bm         A          G    D
        Jesus  cries with no reply
      Am             C
If we only knew just what it takes
   G                F      G        D riff
To leave the others making their mistakes

Verse 2:

       D               F#m/D           Am
If you care         to say        that life ain't worth it anyway
C                G               D riff
    Beze's gonna grab you in the end
       D               F#m/D           Am
If you see           a fool         in memories that belie the rule
C                   G              D riff
    Always take the chances and pretend


Bridge:

       Bm               Bm/A             Bm/G             Bm/F#
-|-----2----------------2----------------x----------------x-----------------|-
-|*----3----------------3----------------3----------------3-----------------|-
-|-----4----------------4----------------4----------------4-----------------|-
-|-----4----------------4----------------4----------------4-----------------|-
-|*----2----------------0----------------x----------------x-----------------|-
-|---------------------------------------3----------------2-----------------|-
            I heard the voices of the    people as they   started

       Cmaj7            Cmaj7/B          Cmaj7/A          Cmaj7/G
-|-----3----------------3----------------3----------------3-----------------|-
-|-----5----------------5----------------5----------------5----------------*|-
-|-----4----------------4----------------4----------------4-----------------|-
-|-----5----------------5----------------5----------------5-----------------|-
-|-----3----------------2----------------0----------------X----------------*|-
-|--------------------------------------------------------3-----------------|-
       praying

Bm               Bm/A             Bm/G             Bm/F#
    I heard them singing songs of laughter as they started

Cmaj7            Cmaj7/B          Cmaj7/A          Cmaj7/G
saying


     D riff     (repeat 4 times)
Well don't .... walk away .... walk away .... walk away ............


Solo:    (while playing Verse 2 chords)

Repeat Bridge:

Verse 3:    (repeat Verse 1)

Repeat Chorus and End:

Ending:

D riff  (repeat 5 times)
Strum D chord and hold.
Comments