Zappa Frank - Twenty Small Cigars Chords & Tabs

 

Twenty Small Cigars Chords & Tabs

Zappa Frank Chords & Tabs

Version: 1 Type: Tab 2 ratings
1 star 2 stars 3 stars 4 stars 5 stars
comments

Twenty Small Cigars Tab

#----------------------------------PLEASE NOTE---------------------------------#
#This file is the author's own work and represents their interpretation of the #
#song. You may only use this file for private study, scholarship, or research. #
#------------------------------------------------------------------------------##

Twenty Small Cigars
From Chunga's Revenge Album (October 1970)
Tabbed by Mauricio Galeano


||----------------------|----------------7--10---|------------10--6----------|
||----------------------|-----------5--8---------|--10--11--8-------8--------|
||--------4-------------|--2---2--5--------------|--------------------7--9---|
||--1--2-----(4)/5--4---|----3-------------------|---------------------------|
||----------------------|------------------------|---------------------------|
||----------------------|------------------------|---------------------------|


                                            x3
|--------------||------------9--------------||---------|
|--10----------||----10---10---12--10--8----||---10----|
|-----11--12---||-*-----9-----------------*-||---------|
|--------------||-*-----------------------*-||---------|
|--------------||---------------------------||---------|
|--------------||---------------------------||---------|



|--3-------------------------------------------|
|----5p3p0-------------------------------------|
|----------5--2--5p2p0--2--0-------------------|
|-----------------------------0--0-------------|
|-----------------------------------(3)/4--0---|
|----------------------------------------------|



|-----8------|-------------------------|-----8----8---------|------------------|
|--10---10---|--9--6--9--6---9--6------|--10---10---10------|--9--6--9--6--9---|
|------------|---------------------6---|---------------10---|------------------|
|------------|-------------------------|--------------------|------------------|
|------------|-------------------------|--------------------|------------------|
|------------|-------------------------|--------------------|------------------|



|-----8------------------|----------------------|----------8--9---12p8--12p8---|
|--10---10----10----10---|--9--6--9---9--6--9---|--8-10-11---------------------|
|----------10----10------|----------------------|------------------------------|
|------------------------|----------------------|------------------------------|
|------------------------|----------------------|------------------------------|
|------------------------|----------------------|------------------------------|



|--10--12--10--------13--17--13----------|-------------------------------|
|-------------11--15------------13--16---|--15--14--13--12--11--13--10---|
|----------------------------------------|-------------------------------|
|----------------------------------------|-------------------------------|
|----------------------------------------|-------------------------------|
|----------------------------------------|-------------------------------|



[ Tab from: http://www.guitartabs.cc/tabs/z/zappa_frank/twenty_small_cigars_tab.html ]
|-----12-------------------|----------------------|----------------7--10---|
|--13----10--12------------|----------------------|-----------5--8---------|
|--------------------------|--------4-------------|--2---2--5--------------|
|----------------5-4-3-2---|--1--2-----(4)/5--4---|----3-------------------|
|--------------------------|----------------------|------------------------|
|--------------------------|----------------------|------------------------|



|-------------------------------|------------10--6--------------------|
|--7--10--8--7------------------|--10--11--8-------8------------------|
|---------------9--7--9--7--7---|--------------------7--9----11-p-9---|
|-------------------------------|-------------------------------------|
|-------------------------------|-------------------------------------|
|-------------------------------|-------------------------------------|



|-------------||------------9--------------||-------|
|--10---------||----10---10---12--10--8----||--10---|
|-----11--12--||-*-----9-----------------*-||-------|
|-------------||-*-----------------------*-||-------|
|-------------||---------------------------||-------|
|-------------||---------------------------||-------|



|--3--0--------------------------------------|-----8------|-------------11---|
|-------5--3---------------------10--8--10---|--10---10---|-------9--12------|
|------------5--2--5-----------9-------------|------------|-----9------------|
|--------------------7--7-/-10---------------|------------|--11--------------|
|--------------------------------------------|------------|------------------|
|--------------------------------------------|------------|------------------|



|--8--------------|-------------11----11---|--8--------------|-------------|
|----10-----------|-------9--12----12------|----10-----------|---9--6--9---|
|-------10--------|-----9------------------|-------10--------|-------------|
|----------8------|--11--------------------|----------8------|-------------|
|------------10---|------------------------|------------10---|-------------|
|-----------------|------------------------|-----------------|-------------|



|------------8--9---|--------------------------------------------|
|--8--10--11--------|--5--2---BU-----BU-BD-----------------------|
|-------------------|-------(4)/6--(4)/6-4-p2-p0-h2----2--------|
|-------------------|--------------------------------4----4--2---|
|-------------------|--------------------------------------------|
|-------------------|--------------------------------------------|



|--10--12--10--------13--17--13----------|--------------------------10---||
|-------------11--15------------13--16---|--15--11--7------------8--10---||
|----------------------------------------|--15--11--7--7--8--10--7--12---||
|----------------------------------------|--16--12--6--x--x---x--8--10---||
|----------------------------------------|-------------5--6---8----------||
|----------------------------------------|-------------------------------||
Comments