Zappa Frank - Tengo Na Minchia Tanta Chords & Tabs

 

Tengo Na Minchia Tanta Chords & Tabs

Zappa Frank Chords & Tabs

Version: 1 Type: Tab 0 ratings
1 star 2 stars 3 stars 4 stars 5 stars
comments

Tengo Na Minchia Tanta Tab

Frank Zappa - Tengo na minchia tanta

tab by marchino marco_gol

e|---------------------------------------|
B|---------------------------------------|
G|---------------------------------------|
D|---------------------------------------|
A|-8-7---8-7-7-3-3-5---8-7---8-7-7-3-5---|
E|-6-5---6-5-5-1-1-3---6-5---6-5-5-1-3---|
tengo na minchia tanta, tengo na minchia accussì
[ Tab from: http://www.guitartabs.cc/tabs/z/zappa_frank/tengo_na_minchia_tanta_tab.html ]
e|------------------------------------------------------------|
B|------------------------------------------------------------|
G|------------------------------------------------------------|
D|-7-7-7-8---8---5---5---10--10--7-7-7-8---8---5-----12--10---|
A|-5-5-5-6---6---3---3---8---8---5-5-5-6---6---3-----10--8----|
E|------------------------------------------------------------|
devi usare un pollo, se me la vuoi misurà
Comments