Zappa Frank - Im The Slime Chords & Tabs

 

Im The Slime Chords & Tabs

Zappa Frank Chords & Tabs

Version: 1 Type: Tab 0 ratings
1 star 2 stars 3 stars 4 stars 5 stars
comments

Im The Slime Tab

"I'm The Slime"
Frank Zappa
[ Tab from: http://www.guitartabs.cc/tabs/z/zappa_frank/im_the_slime_tab.html ]
main riff
e------------------------|---------------------------|
b------------------------|---------------------------|
g------------------------|---------------------------|
d----2h4--2--------------|----2h4--2-----------------|
a--4-----4--4p2p0h2-h4p2-|--4-----4--4p2p0h0-h4p0----|
E------------------------|------------------------2--|


then this
e--------------|
b--------------|
g--------------|
d-2-p0-------2-|
a-----4-p0h2---|
E--------------|
after three of those, do this
e--------------|
b--------------|
g--------------|
d--------------|
a--3-2-0-------|
E--------3-2-1-|
Comments